Wipers - So Young Chords & Tabs

 

So Young Chords & Tabs

Wipers Chords & Tabs

Version: 1 Type: Tab 0 ratings
1 star 2 stars 3 stars 4 stars 5 stars
comments

So Young Tab

So Young (Props go to John Sixkiller)
Wipers
Over The Edge

Intro:
E--------------------------------------------------------------------------
B--------------------------------------------------------------------------
G--12-12-12-12-12-12-12-12-11-11-11-11-11-11-11-11-14-14-14-14-14-14-14-14-
D--------------------------------------------------------------------------
A--------------------------------------------------------------------------
E--------------------------------------------------------------------------
                          2x
E--------------------------|
B--------------------------|
G--12-12-12-12-12-12-12-12-|
D--------------------------|
A--------------------------|
E--------------------------|

Pre-Verse:
E------------------------------------------------------------------------
B------------------------------------------------------------------------
G--------------------------------------5--5-5-5--5-5-5--5--5-5-5--5-5-5--
D--8--8-8-8--8-8-8---3--3-3-3--3-3-3---5--5-5-5--5-5-5--5--5-5-5--5-5-5--
A--8--8-8-8--8-8-8---3--3-3-3--3-3-3---3--3-3-3--3-3-3--3--3-3-3--3-3-3--
E--6--6-6-6--6-6-6---1--1-1-1--1-1-1-------------------------------------
                                    4x
E------------------------------------|
B------------------------------------|
G--5--5-5-5--5-5-5--5--5-5-5--5-5-5--|
D--5--5-5-5--5-5-5--5--5-5-5--5-5-5--|
A--3--3-3-3--3-3-3--3--3-3-3--3-3-3--|
E------------------------------------|
[ Tab from: http://www.guitartabs.cc/tabs/w/wipers/so_young_tab.html ]
Verse:
E----------------------------------|
B-----------------------------0----|
G--3-3-3-3--3-3-3-3-----------0-3--|
D--3-3-3-3--3-3-3-3-------------3--|
A--1-1-1-1--1-1-1-1-------------2--|
E----------------------0-0-0-------|

Bridge:                                                               2x
E----------------------------------------------------------------------|
B----------------------------------------------------------------------|
G--3-3-3-3--3-3-3-3--3-3-3-3--5-5-5------------------------------------|
D--3-3-3-3--3-3-3-3--3-3-3-3--5-5-5--5-5-5-5--5-5-5-5--5-5-5-5--5-5-5--|
A--1-1-1-1--1-1-1-1--1-1-1-1--3-3-3--5-5-5-5--5-5-5-5--5-5-5-5--5-5-5--|
E------------------------------------3-3-3-3--3-3-3-3--3-3-3-3--3-3-3--|

Chorus:
E------------------------------------------------------------------------
B------------------------------------------------------------------------
G--------------------------------------5--5-5-5--5-5-5--5--5-5-5--5-5-5--
D--8--8-8-8--8-8-8---3--3-3-3--3-3-3---5--5-5-5--5-5-5--5--5-5-5--5-5-5--
A--8--8-8-8--8-8-8---3--3-3-3--3-3-3---3--3-3-3--3-3-3--3--3-3-3--3-3-3--
E--6--6-6-6--6-6-6---1--1-1-1--1-1-1-------------------------------------
                                    4x
E------------------------------------|
B------------------------------------|
G--5--5-5-5--5-5-5--5--5-5-5--5-5-5--|
D--5--5-5-5--5-5-5--5--5-5-5--5-5-5--|
A--3--3-3-3--3-3-3--3--3-3-3--3-3-3--|
E------------------------------------|
Comments