Wipers - Misleading Chords & Tabs

 

Misleading Chords & Tabs

Wipers Chords & Tabs

Version: 1 Type: Tab 0 ratings
1 star 2 stars 3 stars 4 stars 5 stars
comments

Misleading Tab

Misleading
Wipers
Power In One, 1999

Intro Riff: (4x)
E-----------------------
B-----------------------
G-------3-3-------------
D--5-5--3-3--5-5-3-3----
A--5-5-------5-5-3-3----
E-----------------------

Verse:
E-------------------------
B--14----17---14----12-12-
G--14----17---14----12-12-
D--14----17---14----12-12-
A--12----15---12----10-10-
E-------------------------

Bridge: (2x)
E---------------------
G--------14-14-14-14--
G--------14-14-14-14--
D--------14-14-14-14--
A--------12-12-12-12--
E--X--X---------------
[ Tab from: http://www.guitartabs.cc/tabs/w/wipers/misleading_tab.html ]
Chorus:
E---------------------------------------------------------------------------
B--14-14-14------12-x-x-12-x-x-12-12------14-14-14-----12-x-x-12-x-x-12-12--
G--14-14-14------12-x-x-12-x-x-12-12------14-14-14-----12-x-x-12-x-x-12-12--
D--14-14-14------12-x-x-12-x-x-12-12------14-14-14-----12-x-x-12-x-x-12-12--
A--12-12-12------10-x-x-10-x-x-10-10------12-12-12-----10-x-x-10-x-x-10-10--
E---------------------------------------------------------------------------

We smell a little sweeter from the shit we're in
I can't believe what kind of shape it's in now
Maybe later some will understand...
We've got no place in the future plans now
It's misleading and it's only a trick to hold you down...
Hold you down...

What generation am I livin' in?
I can't believe the time and place I'm in now...
I can't believe it's time to shut this scene...
I wish I had a time machine

It's misleading and it's only a trick to hold you down...
It's misleading and it's only a trick to hold you down...
Hold you down...

We smell a little sweeter from the shit we're in...
I can't believe the kind of shape it's in now...
Maybe later someone will have something to say...
I hope I find it just to save my faith now...

It's misleading and it's only a trick to hold you down...
It's misleading and it's only a trick to hold you down...
It's misleading and it's only a trick to hold you down...
Hold you down...
Comments