Wipers - Land Of The Lost Chords & Tabs

 

Land Of The Lost Chords & Tabs

Wipers Chords & Tabs

Version: 1 Type: Tab 0 ratings
1 star 2 stars 3 stars 4 stars 5 stars
comments

Land Of The Lost Tab

Props go to John Sixkiller

Land Of The Lost
Wipers
Land Of The Lost, 1985?

(Intro)
E----------------------------------
B--(15)~~~~~~~---------------------
G----------------------------------
D--0-0-5-0-3-0-0-3-0-5-0--0-3-0-0--
A--0-0-5-0-3-0-0-3-0-5-0--0-3-0-0--
E----------------------------------

(Verse)
E-------------------------------------------------------------------------------
B-----------------------------7--5--7---7---------------------------7--5--7---7-
G-----------------------------7--5--7---7---------------------------7--5--7---7-
D--0-0-5-0-3-0--0-5-0-3-0-----7--5--7---7--0-5-0-3-0--0-5-0-3-0-----7--5--7---7-
A--0-0-5-0-3-0--0-5-0-3-0-----5--3--5---5--0-5-0-3-0--0-5-0-3-0-----5--3--5---5-
E-------------------------------------------------------------------------------
Get sick and tired of hangin' around...
This place just gets me, down to the ground
Bunch of people flashin' down the highway to hell
Where's it's gonna take them, no one can tell..
(Chorus)
E---------------------------------\         
B----------------------------------\ go back to verse     
G-----------------------------------\     
D--7--7--7-7---5-5-5---3--3--3-3----/    
A--7--7--7-7---5-5-5---3--3--3-3---/       
E--5--5--5-5---3-3-3---1--1--1-1--/      

Solo:
                     )                  )
E--13--10--13--10--13----13-10-13-10--18--
B-----------------------------------------
G-----------------------------------------
D-----------------------------------------
A-----------------------------------------
E-----------------------------------------
[ Tab from: http://www.guitartabs.cc/tabs/w/wipers/land_of_the_lost_tab.html ]
E--13--10--13--10-----)---)--)---)--)------
B-------------------10--10-10--10-10--10---
G-------------------12--12-12--12-12--12---
D------------------------------------------
A------------------------------------------
E------------------------------------------

E--10-13-10-----10-----------------)---)--)--)---)---)--)--)---)---)-
B--10-13-10--13-10-13-10---------10--10-10-10--10--10-10-10--10--10--
G------------13----13-10--12-10--12--12-12-12--12--12-12-12--12--12--
D-------------------------12-10--------------------------------------
A--------------------------------------------------------------------
E--------------------------------------------------------------------

     )   )  )  )   )   )  )  )   )   )  )  )   )   )  )  )   )   )  )  )   )
E--10--10-10-10--10--10-10-10--10--10-10-10--10--10-10-10--10--10-10-10--10--
B--13--13-13-13--13--13-13-13--13--13-13-13--13--13-13-13--13--13-13-13--13--
G----------------------------------------------------------------------------
D----------------------------------------------------------------------------
A----------------------------------------------------------------------------
E----------------------------------------------------------------------------

     )    )
E--10---10~~~~~~~~~~~
B--13---13~~~~~~~~~~~
G--------------------
D--------------------
A--------------------
E--------------------

Lyrics:

(w/verse riff)
.

(w/chorus riff)
You know you're gonna get there
At any cost
Just take a trip to the
Land of the lost...yeah

(w/verse riff)
Get sick and tired of losin' my mind
Get so messed up, all of the time
See the four walls cavin' in on me
Fall from the sky, flash to the sea

(w/chorus riff)
You know you're gonna get there
At any cost
Just take a trip to the
Land of the lost...yeah
Comments