Wipers - Is This Real Chords & Tabs

 

Is This Real Chords & Tabs

Wipers Chords & Tabs

Version: 1 Type: Tab 0 ratings
1 star 2 stars 3 stars 4 stars 5 stars
comments

Is This Real Tab

   
IS THIS REAL? (Props go to John Sixkiller)

Intro (2x):
E--4-4--------------4---5---4-4-
B--5-5--------------5---5---5-5-
G--4-4--------------4---4---4-4-
D-------------------------------
A-------------------------------
E------0-0-0-0-0-0----0---0-----
[ Tab from: http://www.guitartabs.cc/tabs/w/wipers/is_this_real_tab.html ]
Verse:
G A
Sometimes I get these feelings
F G
And I don't know what to say
A
Is it that I don't really want to
F
'Cause I, I really want to stay
G A
Sometimes I wish
F G
That you could break up to me
G A
Is this real?
F B
Is this real?
A D
Is this real?

Interlude (1x):
E--5-5-4-5-4--2-3-2-3-2-2------------
B--5-5-5-5-5--3-3-3-3-3-3-----1--1-1-
G--4-4-4-4-4--2-2-2-2-2-2-----0--0-0-
D-----------------------------2--2-2-
A--------------------------3--3--3-3-
E------------------------------------

In time I found myself wishing you were here
But then I realized that all time stood still
Sometimes I wish that you could break up to me...
Is this real? (3x)
Comments