Wipers - D7 Chords & Tabs

 

D7 Chords & Tabs

Wipers Chords & Tabs

Version: 1 Type: Tab 0 ratings
1 star 2 stars 3 stars 4 stars 5 stars
comments

D7 Tab

D.7. (Props go to John Sixkiller)

Pt. 1
E-------------------------------
B-------------------------------
G-------------------------------
D---------2---------------0-----
A-----2---2-----------3---3-----
E--0------0---0---1-------1-----

Pt. 2
E-------------------------
B-------------------------
G-------------------------
D-------7-------------8---
A----7--7---------8---8---
E--5----5----5/6------6---

(w/Pt. 1)
Straight as an arrow
Defect, defect
Not straight, not so straight
Reject, reject

(w/Pt. 2)
Towards anti-social
So dull, so dull

(w/Pt. 1)
Standing on the stairs
Cold, cold morning
Ghostly interfear
Mayday, mayday

(w/Pt. 2)
Gonna leave this region
They'll take me with them

(w/Pt. 1)
Dimension 7...
Dimension 7...

Pt. 4
E---------------------------------
B---------------------------------
G---------------------------------
D--2---2-2---2-2-2-2---3-3--5--3--
A--2---2-2---2-2-2-2---3-3--5--3--
E---------------------------------
[ Tab from: http://www.guitartabs.cc/tabs/w/wipers/d7_tab.html ]
Pt. 5
E---------------------------------
B---------------------------------
G--2---2-2---2-2-2-2---3-3--5--3--
D--2---2-2---2-2-2-2---3-3--5--3--
A---------------------------------
E---------------------------------

(Small, ringing part in the background, only played once)
E----------------------0-0---0--0--
B----------------------1-1---3--1--
G--1---1-1---1-1-1-1---2-2---4--2--
D--0---0-0---0-0-0-0---3-3---5--3--
A--2---2-2---2-2-2-2---------------
E----------------------------------

(w/Pt. 4)
Straight as an arr-ow
De-fect, de-fect
Not straight, not so straight
Re-ject, re-ject

(w/Pt. 5)
Towards anti-social
So dull, so dull

(w/Pt. 4)
Past astro borders
Zeno lies waiting
Past gaseous asteroid remains
Intrigue, such intrigue

(w/Pt. 5)
Gonna leave this region
They'll take me with them

(w/Pt. 4)
Straight as an arrow
Defect, defect
Not straight, not so straight
Reject, reject

(w/Pt. 5)
Towards anti-social
So dull, so dull

(w/Pt. 4)
Dimension 7...
Dimension 7...
Dimension 7...
Dimension 7...
Dimension 7...
Comments