Wipers - Can This Be Chords & Tabs

 

Can This Be Chords & Tabs

Wipers Chords & Tabs

Version: 1 Type: Tab 0 ratings
1 star 2 stars 3 stars 4 stars 5 stars
comments

Can This Be Tab

   
From the album "Youth Of America".

The second installment of the Wipers songbook thing I'm trying to accomplish
here. As said before on my "Is This Real?" bookie thing, these sound kinda like
it to me, plus I'm not getting paid, blah blah blah. Buy all of the Wipers
records, you will not regret it.

Youth Of America
Wipers (Greg Sage, Brad Naish, Brad Davidson)
Recorded in 1981
All of these tabs are by John Sixkiller

Can This Be?

E-------------------------------------
B-------------------------------------
G--7-7-6-7-9-9-7-6--------------------
D--7-7-6-7-9-9-7-6--9-9-9-9-9-9-9-9-9-
A--5-5-4-5-7-7-5-4--9-9-9-9-9-9-9-9-9-
E-------------------7-7-7-7-7-7-7-7-7-
[ Tab from: http://www.guitartabs.cc/tabs/w/wipers/can_this_be_tab.html ]
D            A
Whose makin' such a deal
C              G      A
That's not the way it feels
                    G   A G
Who are you lookin' for?
D              A
But you get it so confused
C            G        A    G A G
That not the way it's used

E----------------------------
B----------------------------
G----------------------------
D--------------3-5---2--2--2-
A--------3-4-5-------2--2--2-
E--3-4-5-------------0--0--0-

But how long can this be?
How long, can this be?
How long can this be?
How long, can this be?

When life is one big trail
Take it anyway you will
But you get it so confused
That's not the way it's used...

And how long can this be...
How long, can this be?
How long, can this be...
How long can this be?
Comments