Wintersleep - Avalanche Chords & Tabs

 

Avalanche Chords & Tabs

Wintersleep Chords & Tabs

Version: 1 Type: Tab 0 ratings
1 star 2 stars 3 stars 4 stars 5 stars
comments

Avalanche Tab

   
----------------------------------------------------------------------------
			     Avalanche - Wintersleep
----------------------------------------------------------------------------
Tabbed by:j-roc1186
Email:big_jigga_man@hotmail.com

Tuning:Drop-D
1st Verse
e|----------------------------------------------------------------repeatX8--|
B|--------------------------------------------------------------------------|
G|--------------------------12-------------------------------14-------------|
D|----10----10----------14------14--------7----7----------15-----15---------|
A|--8-----8-----------------------------5----5------------------------------|
D|-8-----8------8-0-0-----------------5----5------5-0-0---------------------|

[ Tab from: http://www.guitartabs.cc/tabs/w/wintersleep/avalanche_tab.html ]
e|--------------------------------------------------------------------------|
B|--------------------------------------------------------------------------|
G|--------------------------12----------------------------------------------|
D|----10----10----------14------14--------7----7----------------------------|
A|--8-----8-----------------------------5----5------------------------------|
D|-8-----8------8-0-0-----------------5----5------5-0-0---------------------|

Chorus (play each chord 8 times listen to the song for the strumming pattern) repeat X4
e|--------------------------------------------------------------------------|
B|--------------------------------------------------------------------------|
G|--------------------------------------------------------------------------|
D|-15-14-12-14--------------------------------------------------------------|
A|-12-10-8--10--------------------------------------------------------------|
D|-12-10-8--10--------------------------------------------------------------|

Thats about it. it will go back into the picking and play that through 4 times then it's 
all the chords antill the end of the song. Enjoy

| /  slide up
| \  slide down
| h  hammer-on
| p  pull-off
| ~  vibrato
| +  harmonic
| x  Mute note
============================================================================
Comments