Wintersleep - A Long Flight Chords & Tabs

 

A Long Flight Chords & Tabs

Wintersleep Chords & Tabs

Version: 1 Type: Tab 0 ratings
1 star 2 stars 3 stars 4 stars 5 stars
comments

A Long Flight Tab

A long flight (in regular tuning)
 This is not the right way to play it because it is normally played in CGDGBE but this 
more convenient so you donít have to tune down


e --------------------------------------------------------------------------|
B ----8-----------------8-----------------8-----------------8---------------|
G --------------------------------------------------------------------------|
D ---------9------------------9----------------9-----------------9----------|
A ----7---------7-------7----------7------7----------7------7----------7----|
E --------------------------------------------------------------------------|

[ Tab from: http://www.guitartabs.cc/tabs/w/wintersleep/a_long_flight_tab.html ]
e --------------------------------------------------------------------------|
B ----5----------------5------------------5---------------5-----------------|
G --------------------------------------------------------------------------|
D ---------5----------------5------------------5---------------5------------|
A ----3---------3------3----------3-------3---------3-----3---------3-------|
E --------------------------------------------------------------------------|


e --------------------------------------------------------------------------|
B ----7-----------------7------------------7--------------------------------|
G ----------------------------------------------------------7---------------|
D ---------7------------------7------------------7--------------7-----------|
A ----5----------5------5-----------5------5----------5-----5-------5-------|
E --------------------------------------------------------------------------|


e ------------------------------------------------------------------------|
B ---8-----------------8-------------------8-------------------7----------|
G ------------------------------------------------------------------------|
D --------9------------------9--------------------9-----------------9-----|
A ---7--------7-------7-----------7-------7------------7-------7--------7-|
E ------------------------------------------------------------------------|


The rest of the song is the same chords strummed with tremelo picking in the background.
Comments