Winters Johnnie - Self Destruction Blues Chords & Tabs

 

Self Destruction Blues Chords & Tabs

Winters Johnnie Chords & Tabs

Version: 1 Type: Bass Tab 0 ratings
1 star 2 stars 3 stars 4 stars 5 stars
comments

Self Destruction Blues Bass Tab

Self Destruction Blues  - Johnnie Winters

TABBED by hawkhuff

This is a kick ass tune with great riffs.
It's a fast and furious tune.  Improvise as needed but I 
provided some of the riffs used in the jam.  Enjoy.

     Intro: 3X
G--------------------------------------------|
D----345-------------------------5-----------|
A--5------5-S3/1---1----5-S3/1---------------|
E--------3-------3----3--------3---3---------|


                       Verse:                  3X
G--------------------|------------------------------------|
D---55555553---------|--------------53--------------------|
A----------------5---|-----------------51-----------------|
E------------------3-|-333333333333-------333333333-------|

G-------------------------------------------------|
D------------------------5-3----------------------|
A----01S1/33333333333335-----5-1------------------|
E--------------------------------33333333333333---|

                                                                  
  After this, back to intro 
G----------------------------------------------|
D-----------------5-3--------------------------|
A----03455555555------5-1----------------------|
E-------------------------33333333333333-------|


Lead: 
(these are various riffs that can be 
used,and are,during the jam.)
[ Tab from: http://www.guitartabs.cc/tabs/w/winters_johnnie/self_destruction_blues_btab.html ]
G-------------------------------------------------------------|
D---------------------------------------5-3-------------------|
A-----------------------------0133333333----5-1---------------|
E---33001122330011223300112233-----------------33333333333333-|

                                                                  
               
G--------------------------3------------------------|
D----------------3-3-5-3-5--5-3---------------------|
A-----345555555-5-5------------5-3------------345---|
E---3------------------------------5-333333333------|





    Lead:  A variation on the same theme.
G--------------------------------------------------------|
D---55---334455---334455---334455-443322-----------23----|
A-----55--------55-------55-------------3333333333-------|
E--------------------------------------------------------|


G--------------------------------------3-----------------|
D-----------------------------3-3-5-3-5-5-3--------------|
A----------------23S35555555-5-5-----------5-3-------345-|
E-33333333333333------------------------------5-33333----|

     Lead:  Another variation on the same theme.
G--------------------------------2233445--------------------|
D---55---334455---334455---334455---------------------------|
A------55-------55-------55-------------3333333333221100----|
E--------------------------------------------------------33-|

questions:   hawkhuff@msn.com

Comments