Winnerback Lars - Under Manen Chords & Tabs

 

Under Manen Chords & Tabs

Winnerback Lars Chords & Tabs

Version: 1 Type: Tab 0 ratings
1 star 2 stars 3 stars 4 stars 5 stars
comments

Under Manen Tab

   
Winnerbäck spelar med gitarren stämd i D-dur. 

D (ner ett helt tonsteg), A, d, a (upp ett helt tonsteg), d (upp tre halva tonsteg), f# (upp ett helt tonsteg) 

Försök inte stämma gitarren i E-dur, för då går strängarna sönder, använd istället capo på andra bandet.

F#
D
A
D
A
D

Lycka till!



Under månen
Lars Winnerbäck


Capo på 2:a bandet

Intro
   D                A6/C#            Bm7              G
f#|0-----------0---|------------0---|------------0---|----------------|
 d|----------------|2---------------|0---------------|0-----------0---|
 a|------0---------|------0---------|------0---------|----------------|
 d|----------------|----------------|----------------|------5---------|
 A|5---------------|4---------------|2---------------|----------------|
 D|----------------|----------------|----------------|5---------------|

   D                Em      G        Asus4
f#|----------------|----------------|----------------|0---------------|
 d|0-----------0---|----------------|------0---------|------------0---|
 a|------0---------|2-------5-------|7-----------7---|------7---------|
 d|----------------|2-------5-------|7---------------|----------------|
 A|5---------------|----------------|----------------|----------------|
 D|----------------|----------------|----------------|----------------|

   Bm                                F#m5#
f#|----------------|----------------|----------------|----------------|
 d|----------0-----|--0-------0-----|----------0-----|--0-------0-----|
 a|2-----2-------2-|------2---------|4-----4-------4-|------4---------|
 d|----4-------4---|----4-------0---|----0-------0---|----0-------0---|
 A|2-------2-------|2-------2-------|----------------|----------------|
 D|----------------|----------------|4-------4-------|4-------4-------|

   G                Bm      A        D                                 
f#|----------------|----------------|----------------|----------------|
 d|----------0-----|4-------2-------|0h2p0-----0-----|0h2p0-----0-----|
 a|5-----5---------|----------------|0h2p0-0-------0-|0h2p0-0-------0-|
 d|----0-------0---|----0-------0---|----0-------0---|----0-------0---|
 A|----------------|2-------0-------|----------------|----------------|
 D|5-------5-------|----------------|0-------0-------|0-------0-------|

Vers
   D                F#m5#             G                Bm      A        D
f#|----------------|----------------|----------------|----------------|----------0-----|--0-------0-----|
 d|----------0-----|--0-------0-----|--0-------0-----|4-------2-------|0-------------0-|------0---------|
 a|------0-------0-|------4-------4-|------5---------|----------------|------0-----0---|----0-------0---|
 d|----0-------0---|----0-------0---|----0-------0---|----0-------0---|----0-----------|----------------|
 A|----------------|----------------|----------------|2-------0-------|----------------|----------------|
 D|0-------0-------|4-------4-------|5-------5-------|----------------|0-------0-------|0-------0-------|
 
1  Fru bast hälsade på den natten, fri från alla domedagsdressyrer
2  Men stjärnorna föll, och älvor höll oss fånga i ett avsked under månen
3  Och timmarna vi hade och som gick försvann med tanken bort i dimman, vi
4  Å det vart en sekund av enighet och en sekund av osynliga tårar

   Bm7                               F#m5#
f#|----------------|----------------|----------------|----------------|
 d|0---------0-----|--0-------0-----|0---------0-----|--0-------0-----|
 a|------0-------0-|------0-------0-|------4-------4-|------4-------4-|
 d|----4-------4---|----4-------4---|----0-------0---|----0-------0---|
 A|2-------2-------|2-------2-------|----------------|----------------|
 D|----------------|----------------|4-------4-------|4-------4-------|

1  Månen stod i zenit över ån, i
2  Domedagsprofeter satt och grät, och
3  vände innan venus syntes klart, och
4  I dionysos dissonans

   D                F#m5#             G                Bm      A        D
f#|----------------|----------------|----------------|----------------|----------0-----|--0-------0-----|
 d|----------0-----|--0-------0-----|--0-------0-----|4-------2-------|0-------------0-|------0---------|
 a|------0-------0-|------4-------4-|------5-------5-|----------------|------0-----0---|----0-------0---|
 d|----0-------0---|----0-------0---|----0-------0---|----0-------0---|----0-----------|----------------|
 A|----------------|----------------|----------------|2-------0-------|----------------|----------------|
 D|0-------0-------|4-------4-------|5-------5-------|----------------|0-------0-------|0-------0-------|

1  Dionysos vinkapell satt älvorna och skåla med satyrer, å vi
2  orden om försoning fick sitt liv som aldrig hörts i telefonen, en
3  landa i en säng med valda ord och såg vår sista vargatimma, sa-
4  en sekund var klarsynt och förstod att jag var en av tusen dårar, som

   Bm7                               F#m5#
f#|----------------|----------------|----------------|----------------|
 d|0---------0-----|--0-------0-----|0---------0-----|--0-------0-----|
 a|------0-------0-|------0-------0-|------4-------4-|------4-------4-|
 d|----4-------4---|----4-------4---|----0-------0---|----0-------0---|
 A|2-------2-------|2-------2-------|----------------|----------------|
 D|----------------|----------------|4-------4-------|4-------4-------|

1  hylla vår förgängelse-demon, det var
2  kyss i Dionysos tête à tête, ett
3  tyrer vände hem från fläkt och fart, det var
4  hoppas harmoni och tolerans, men

   G                Bm      A        D
f#|----------------|----------------|----------0-----|--0-------0-----|
 d|0---------0-----|4-------2-------|0-------------0-|------0---------|
 a|------5---------|----------------|------0-----0---|----0-------0---|
 d|----0-------0---|----0-------0---|----0-----------|----------------|
 A|----------------|2-------0-------|----------------|----------------|
 D|5-------5-------|----------------|0-------0-------|0-------0-------|

1  sommar och du skulle härifrån, jag såg 
2  snedsteg av förlåt som jag förlät, för
3  lugnt och tyst men knappast underbart, för är man
4  letar så febrilt i älvors dans, så jag gick

   G                                 D
f#|----------------|----------------|----------------|----------------|
 d|0---------0-----|--0-------0-----|0---------0-----|--0-------0-----|
 a|------5-------5-|------5-------5-|------0-------0-|------0-------0-|
 d|----0-------0---|----0-------0---|----0-------0---|----0-------0---|
 A|----------------|----------------|----------------|----------------|
 D|5-------5-------|5-------5-------|0-------0-------|0-------0-------|

1  bjälken i mitt öga men sån insikt hjälper föga, när
2  månen har en kraft som förnuftet aldrig haft, och aldrig
3  trött på ensamhet har tystnad mist sin dignitet nu var vi
4  hem så konsekvent till mig och mina instrument, och

   Em7                               A
f#|----------------|----------------|----------------|----------------|
 d|0---------0-----|--0-------0-----|0h2-------2-----|--2-------2-----|
 a|------2-------2-|------2-------2-|------0-------0-|------0---------|
 d|----2-------2---|----2-------2---|----2-------2---|----2-------2---|
 A|----------------|----------------|0-------0-------|0-------0-------|
 D|2-------2-------|2-------2-------|----------------|----------------|

1  Fröja plockat ut sitt honorar
2  får och då går det som det går
3  två men ensamheten gav sig på, och den
4  sagan fick det slut den skulle ha


Brygga
   D                A6/C#            Bm7              G
f#|0-----------0---|------------0---|------------0---|----------------|
 d|----------------|2---------------|0---------------|0-----------0---|
 a|------0---------|------0---------|------0---------|----------------|
 d|----------------|----------------|----------------|------5---------|
 A|5-------5-------|4-------4-------|2-------2-------|----------------|
 D|----------------|----------------|----------------|5-------5-------|

1  Då vill man skrika "börja om och stanna kvar" men vem
2  Så vill jag skriva allt jag sett, så nån förstår fast inga
3  anföll med ett tal om allt jag inte kunde få och det
4  Men det var sommar då och natten blev ju bra, så det var

   D                Em      G        Asus4
f#|----------------|----------------|----------------|----------------|
 d|0-----------0---|----------------|----------0-----|--0-------0-----|
 a|------0---------|2-------5-------|7-----7-------7-|------7---------|
 d|----------------|2-------5-------|7---7-------7---|----7-------7---|
 A|5-------5-------|----------------|----------------|----------------|
 D|----------------|2-------5-------|7-------7-------|7---------------|
[ Tab from: http://www.guitartabs.cc/tabs/w/winnerback_lars/under_manen_tab.html ]
1  hör en sådan sliten kommentar, inga
2  toner kan förklara hur jag mår
3  såg du  men du bad mig inte gå, men
4  vackert men det såg jag först idag

   Bm7                               F#m5#
f#|----------------|----------------|----------------|----------------|
 d|----------0-----|--0-------0-----|----------0-----|--0-------0-----|
 a|0-----0-------0-|------0---------|4-----4-------4-|------4---------|
 d|----4-------4---|----4-------0---|----0-------0---|----0-------0---|
 A|2-------2-------|2-------2-------|----------------|----------------|
 D|----------------|----------------|4-------4-------|4-------4-------|

1  svar
3  förstå

   G                Bm      A        D
f#|----------------|----------------|----------------|----------------|
 d|----------0-----|4-------2-------|0h2p0-----------|0h2p0-----------|
 a|5-----5---------|----------------|0h2p0-----------|0h2p0-----------|
 d|----0-------0---|----0-------0---|----0-------0---|----0-------0---|
 A|----------------|2-------0-------|----------------|----------------|
 D|5-------5-------|----------------|0-----0---------|0-----0---------|

Vers 2

Brygga

Refräng
   B                                 Em
f#|----------------|----------------|1---------1-----|--1-------1-----|
 d|1--------1------|--1-------1-----|------2-------2-|------2---------|
 a|-----2-------2--|------2---------|----2-------2---|----2-------2---|
 d|---1-------1----|----1-------1---|----------------|----------------|
 A|2------2--------|2-------2-------|----------------|----------------|
 D|----------------|----------------|2-------2-------|2-------2-------|

1  Och det blev sent och det blev tyst och när bacchus hade
2  Och när jag vandrar ut i kväll till dionysos vinkap-

   G                                 Asus4
f#|----------------|----------------|----------------|----------------|
 d|----------0-----|----------0-----|0---------0-----|--0-------0-----|
 a|5-----5---------|--5-----5-------|------7---------|------7---------|
 d|----5-------5---|----5-------5---|----7-------7---|----7-------7---|
 A|----------------|----------------|----------------|----------------|
 D|5-------5-------|5-------5-------|7---------------|7---------------|

1  kysst oss blev jag rädd och du blev stel och du sa "allt det här är
2  ell och ser satyrer höja glas Och älvor dansa i ex-

   F#m5#                             Bm                              
f#|----------------|----------------|----------------|----------------|
 d|----------0-----|--0-------0-----|0---------0-----|--0-------0-----|
 a|4-----4-------4-|------4---------|------2-------2-|------2-------2-|
 d|----4-------4---|----4-------4---|----4-------4---|----4-------4---|
 A|----------------|----------------|2-------2-------|2-------2-------|
 D|4-------4-------|4-------4-------|----------------|----------------|

1  fel" men alla älvor höll oss kvar, och nu var döden uppen-
2  tas, jag vinglar sakta ner till ån och sänder hälsning däri-

   Em7                               A
f#|----------------|----------------|----------------|----------------|
 d|0---------0-----|--0-------0-----|0h2-------2-----|--2-------2-----|
 a|------2-------2-|------2-------2-|------0-------0-|------0---------|
 d|----2-------2---|----2-------2---|----2-------2---|----2-------2---|
 A|----------------|----------------|0-------0-------|0-------0-------|
 D|2-------2-------|2-------2-------|----------------|----------------|

1  bar, i vårat avsked under månen
2  från, till en drottning under månen

Brygga
   D                A6/C#            Bm7              G
f#|0-----------0---|------------0---|------------0---|----------------|
 d|----------------|2---------------|0---------------|0-----------0---|
 a|------0---------|------0---------|------0---------|----------------|
 d|----------------|----------------|----------------|------5---------|
 A|5-------5-------|4-------4-------|2-------2-------|----------------|
 D|----------------|----------------|----------------|5-------5-------|

   D                Em      G        Asus4
f#|----------------|----------------|----------------|----------------|
 d|0-----------0---|----------------|----------0-----|--0-------0-----|
 a|------0---------|2-------5-------|7-----7-------7-|------7---------|
 d|----------------|2-------5-------|7---7-------7---|----7-------7---|
 A|5-------5-------|----------------|----------------|----------------|
 D|----------------|2-------5-------|7-------7-------|7---------------|

   Bm7                               F#m5#
f#|----------------|----------------|----------------|----------------|
 d|----------0-----|--0-------0-----|----------0-----|--0-------0-----|
 a|0-----0-------0-|------0---------|4-----4-------4-|------4---------|
 d|----4-------4---|----4-------0---|----0-------0---|----0-------0---|
 A|2-------2-------|2-------2-------|----------------|----------------|
 D|----------------|----------------|4-------4-------|4-------4-------|

   G                Bm      A        D
f#|----------------|----------------|----------------|----------------|----------------|0---------------|
 d|----------0-----|4-------2-------|0h2p0-----0-----|0h2p0-----0-----|0h2p0-----0-----|------0---------|
 a|5-----5---------|----------------|0h2p0-0-------0-|0h2p0-0-------0-|0h2p0-0-------0-|------------0---|
 d|----0-------0---|----0-------0---|----0-------0---|----0-------0---|----0-------0---|----------------|
 A|----------------|2-------0-------|----------------|----------------|----------------|----------------|
 D|5-------5-------|----------------|0-------0-------|0-------0-------|0-------0-------|0---------------|

Vers 3

Brygga

Vers 4

Brygga

Refräng 2

Outro
   D                A6/C#            Bm7              G
f#|0-----------0---|------------0---|------------0---|----------------|
 d|----------------|2---------------|0---------------|0-----------0---|
 a|------0---------|------0---------|------0---------|----------------|
 d|----------------|----------------|----------------|------5---------|
 A|5-------5-------|4-------4-------|2-------2-------|----------------|
 D|----------------|----------------|----------------|5-------5-------|

   D                Em      G        Asus4
f#|----------------|----------------|----------------|----------------|
 d|0-----------0---|----------------|----------0-----|--0-------0-----|
 a|------0---------|2-------5-------|7-----7-------7-|------7---------|
 d|----------------|2-------5-------|7---7-------7---|----7-------7---|
 A|5-------5-------|----------------|----------------|----------------|
 D|----------------|2-------5-------|7-------7-------|7---------------|

   Bm7                               F#m5#
f#|----------------|----------------|----------------|----------------|
 d|----------0-----|--0-------0-----|----------0-----|--0-------0-----|
 a|0-----0-------0-|------0---------|4-----4-------4-|------4---------|
 d|----4-------4---|----4-------0---|----0-------0---|----0-------0---|
 A|2-------2-------|2-------2-------|----------------|----------------|
 D|----------------|----------------|4-------4-------|4-------4-------|

   G                Bm      A        D                                 
f#|----------------|----------------|----------------|----------------|
 d|----------0-----|4-------2-------|0h2p0-----0-----|0h2p0-----0-----|
 a|5-----5---------|----------------|0h2p0-0-------0-|0h2p0-0-------0-|
 d|----0-------0---|----0-------0---|----0-------0---|----0-------0---|
 A|----------------|2-------0-------|----------------|----------------|
 D|5-------5-------|----------------|0-------0-------|0-------0-------|

   D
f#|----------------|----------------|----------------|----------------|
 d|4h5p4-----0-----|0h2p0-----0-----|4h5p4-----0-----|0h2p0-----0-----|
 a|0-----0-------0-|0h2p0-0-------0-|0-----0-------0-|0h2p0-0-------0-|
 d|----0-------0---|----0-------0---|----0-------0---|----0-------0---|
 A|----------------|----------------|----------------|----------------|
 D|0-------0-------|0-------0-------|0-------0-------|0-------0-------|

   Bm               Asus4            G
f#|----------------|----------------|----------------|----------------|----------------|
 d|----------0-----|----------0-----|----------0-----|--0-------0-----|--0-------0-----|
 a|9-----9---------|7-----7---------|5-----5-------5-|------5-------5-|------5-------5-|
 d|----0-------0---|----0-------0---|----0-------0---|----0-------0---|----0-------0---|
 A|----------------|----------------|----------------|----------------|----------------|
 D|9-------9-------|7-------7-------|5-------5-------|5-------5-------|5-------5-------|

   A#      Asus4    D
f#|----------------|-----0----------|
 d|----------------|----0-----------|
 a|8-------7-------|---0------------|
 d|----0-------0---|--0-------------|
 A|----------------|-0--------------|
 D|8-------7-------|0---------------|

Comments