Wings - Band On The Run Chords & Tabs

 

Band On The Run Chords & Tabs

Wings Chords & Tabs

Version: 2 Type: Tab 0 ratings
1 star 2 stars 3 stars 4 stars 5 stars
comments

Band On The Run Tab

   
-------------------------------------------------------------------------------
              BAND ON THE RUN INTRO - Paul McCartney and Wings
-------------------------------------------------------------------------------
Tabbed by: Ian Ferguson


Tuning: EADGBe

This is the introduction, up to the riff which leads into 
"Well the rain exploded..."


e|--5/7--------5h7--5\--2----14h15p14-----12---------------------------------|
B|--5/7--10\---5----5\--2----14-------15--12---------------------------------|
G|--------9\------------2----14-----------12---------------------------------|
D|----------------------0----------------------------------------------------|
A|---------------------------------------------------------------------------|
E|---------------------------------------------------------------------------|

e|--10/12-------5h7-5\--2----14h15p14-----12---------------------------------|
B|--10/12--15\--5---5\--2----14-------15--12---------------------------------|
G|---------14\----------2----14-----------12---------------------------------|
D|----------------------0----------------------------------------------------|
A|---------------------------------------------------------------------------|
E|---------------------------------------------------------------------------|


e|---15-14\12-10---10-10/12/15-15----15-14\12-12\10-10-10/12/15-15-----------|
B|---15-14\12-10---10-10/12/15 15----15-14\12-12\10-10-10/12/15-15-----------|
G|---------------------------------------------------------------------------|
D|---------------------------------------------------------------------------|
A|---------------------------------------------------------------------------|
E|---------------------------------------------------------------------------|

   Stuck inside these four walls        sent inside forever

e|-------------------14h15p14--------12--------------------------------------|
B|-------------------14--------------12--------------------------------------|
G|-------------------14--------------12--------------------------------------|
D|---------------------------------------------------------------------------|
A|---------------------------------------------------------------------------|
E|---------------------------------------------------------------------------|

      Never seeing no one         nice again

e|-------------------------5h7p5\-------12-----------------------------------|
B|--14h15p14----------------------------12-----------------------------------|
G|--14----------------------------------12-----------------------------------|
D|---------------------------------------------------------------------------|
A|---------------------------------------------------------------------------|
E|---------------------------------------------------------------------------|

      Like you mama         You mama   You   

e|--14----------3-----------14--15-------14---3------------------------------|
B|--14----------3-----------14--15-------14---3------------------------------|
G|--14----------3-----------14--15-------14---3------------------------------|
D|---------------------------------------------------------------------------|
A|---------------------------------------------------------------------------|
E|---------------------------------------------------------------------------|


e|---------------------------------------------------------------------------|
B|---------------------------------------------------------------------------|
G|-------5-5-5-4-4-4--2-2-2---7-7-7-7-7-7\4-4-4------------------------------|
D|-------7-7-7-5-5-5--2-2-2---9-9-9-9-9-9\5-5-5------------------------------|
A|--0------------------------------------------------------------------------|
E|---------------------------------------------------------------------------|

[ Tab from: http://www.guitartabs.cc/tabs/w/wings/band_on_the_run_tab_ver_2.html ]
e|---------------------------------------------------------------------------|
B|---------------------------------------------------------------------------|
G|--5-5-5-4-4-4--2-2-2---7-7-7-7-7-7\4-4-4-----------------------------------|
D|--7-7-7-5-5-5--2-2-2---9-9-9-9-9-9\5-5-5-----------------------------------|
A|---------------------------------------------------------------------------|
E|---------------------------------------------------------------------------|

e|---------------------------------------------------------------------------|
B|---------------------------------------------------------------------------|
G|--5-5-5--4-4-4--2-2--------------------------------------------------------|
D|--7-7-7--5-5-5--2-2--------------------------------------------------------|
A|---------------------------------------------------------------------------|
E|---------------------------------------------------------------------------|


e|---------------------------------------------------------------------------|
B|---------------------------------------------------------------------------|
G|---------5-5-5-4-4-4--2-2-2---7-7-7-7-7-7\4-4-4----------------------------|
D|---------7-7-7-5-5-5--2-2-2---9-9-9-9-9-9\5-5-5----------------------------|
A|------0--------------------------------------------------------------------|
E|0-2/3----------------------------------------------------------------------|


e|---------------------------------------------------------------------------|
B|---------------------------------------------------------------------------|
G|--5-5-5-4-4-4--2-2-2---7-7-7-7-7-7\4-4-4-----------------------------------|
D|--7-7-7-5-5-5--2-2-2---9-9-9-9-9-9\5-5-5-----------------------------------|
A|---------------------------------------------------------------------------|
E|---------------------------------------------------------------------------|

e|---------------------------------------------------------------------------|
B|---------------------------------------------------------------------------|
G|--5-5-5--4-4-4--2-2--------------------------------------------------------|
D|--7-7-7--5-5-5--2-2--------------------------------------------------------|
A|---------------------------------------------------------------------------|
E|---------------------------------------------------------------------------|

   If I ever get out of here,      thought of giving it all away

e|---------------------------------------------------------------------------|
B|----------------------------------------------------------9/10-------------|
G|--------5-5-5-4-4-4--2-2-2--------7-7-7-7-7-7-----------------7-9----------|
D|--------7-7-7-5-5-5--2-2-2--------9-9-9-9-9-9----------------------9-------|
A|------0--------------------------------------------------------------------|
E|0-2/3----------------------------------------------------------------------|

    To a registered charity        All I need is a pint a day 

e|---------------------------------------------------------------------------|
B|-8-------------------------------------7------------7----------------------|
G|----5\4-4h5p4---5/9-5h7p5-------7----------7-7-----7-----------------------|
D|----7\5-------5-----------5-7---9--7h9-----9-9-7h9----9-9------------------|
A|---------------------------------------------------------------------------|
E|---------------------------------------------------------------------------|

   If I ever get out of here

e|---------------------------------------------------------------------------|
B|---------------5-----------------------------------------------------------|
G|--5-5-5-4----------------------5-5-5-4--7----------------------------------|
D|--7-7-7-5--5/7---7-------------7-7-7-5-----5/7-----------------------------|
A|---------------------------------------------------------------------------|
E|---------------------------------------------------------------------------|



    If we ever get out of here...

e|---------------------------------------------------------------------------|
B|---------------------------------------------------------------------------|
G|--5-5-5-----5-4----2-------------------------------------------------------|
D|--7-7-7-------5----2------------5-------------------5----------------------|
A|---------7----------------3-5-7---5-5-3-------3-5-7---5-5-3------3-----3---|
E|----------------------3-5-----------------3-5----------------3-5---3-5-----|


| /  slide up
| \  slide down
| h  hammer-on
| p  pull-off
| ~  vibrato
| +  harmonic
| x  Mute note
===============================================================================
Comments