Winger - Junkyard Dog Chords & Tabs

 

Junkyard Dog Chords & Tabs

Winger Chords & Tabs

Version: 1 Type: Tab 0 ratings
1 star 2 stars 3 stars 4 stars 5 stars
comments

Junkyard Dog Tab

   
Tuning: Db,Ab,Db,Gb,Bb,eb

Intro
-----------------------------------------------------|
-----------------------------------------------------|
-----------------------------------------5~~~~~~~~~~-|
-----------------------------------------5~~~~~~~~~~-|
--5---------6--5----------6--5-----------------------|
--5---------6--5----------6--5-----------------------|

-----------------------------------------------------------------|
-----------------------------------------------------------------|
----------------------------------------------------5~~~~~~-----.|
----------------------------------------------------5~~~~~~-----.|
----1-0-----------1-0-----------1-0------------------------------|
----1-0-0-0-0-0-0-1-0-0-0-0-0-0-1-0-0-0-0-0-3-0------------------|
     (pm---------)   (pm-------)   (pm----------)

---------------------------------------|
---------------------------------------|Main Riff
--------------------------------------.|
--------------------------------------.|
---5-----5---------5-----5-----5/6-----|
---5-2-2-5-2-2-2-2-5-2-2-5-2-2-5/6-----|

-------------------------------|
-----3------3------3------3----|
---0------0------0------0-----.|
------------------------------.|
---------------1------0--------|
-2------3----------------------|
[ Tab from: http://www.guitartabs.cc/tabs/w/winger/junkyard_dog_tab.html ]
-----------------------------------------------------------------|
-----------------------------------------------------------------|
----------------------------------------------------5~~~~~~-----.|
----------------------------------------------------5~~~~~~-----.|
----1-0-----------1-0-----------1-0------------------------------|
----1-0-0-0-0-0-0-1-0-0-0-0-0-0-1-0-0-0-0-0-3-0------------------|
     (pm---------)   (pm-------)   (pm---------)
----------------------------------|
----------------------------------|repeat 4x
---------------------------7~~~---|
---------------------5-7-5--------|
-------------5-7-5-7--------------|
--7-10-7-10-----------------------|

Solo
--22~~~~~/---19-----------------------------------------|
----------------22p19h22/----19~------------------------|
--------------------------21-----21p19------------------|
---------------------------------------21p19------------|
---------------------------------------------22p21~~~/--|
--------------------------------------------------------|

---------19-22b(24)-22-19-------------------------------|
------19------------------22-19-------------------------|
--21b---------------------------21-19-------------------|
--------------------------------------21-19-------------|
--------------------------------------------21-19~~~~/--|
--------------------------------------------------------|

--------------------|
--19b(20)~~~~~~~~---|
--------------------|
--------------------|
--------------------|
--------------------|
Then repeat Main Riff

Notation used:
b-bedn
(20)-ghost note
p-pull off
~-vibrato
/-slide
pm-palm mute
Comments