Wine April - Sign Of The Gypsy Queen Chords & Tabs

 

Sign Of The Gypsy Queen Chords & Tabs

Wine April Chords & Tabs

Version: 1 Type: Bass Tab 0 ratings
1 star 2 stars 3 stars 4 stars 5 stars
comments

Sign Of The Gypsy Queen Bass Tab

:Intro/Verse:         :Verse:
G----------------     G----------------
D----------------     D---0-1-2--------
A-3-2-0----------     A-3--------------
E------2-0-------     E----------------
These two riffs will be played throughout song!!

:Verse:               :Pre-Chorus:
G-------------------  G------------------
D-------------------  D-2-0-2-0-2-0------
A-----5:-5-0:-0-3---  A------------2-0---
E-0:-0--------------  E---------------0--
[ Tab from: http://www.guitartabs.cc/tabs/w/wine_april/sign_of_the_gypsy_queen_btab.html ]
Comments