Winchester Jamie And Robert Hrutka - Last One Out Chords & Tabs

 

Last One Out Chords & Tabs

Winchester Jamie And Robert Hrutka Chords & Tabs

Version: 1 Type: Tab 1 rating
1 star 2 stars 3 stars 4 stars 5 stars
comments

Last One Out Tab

   
Jamie Winchester & Hrutka RĂ³bert: Last One Out... [Please Close The Door]
Tab was done by Daniel Czuriga
notes and corrections must be sent to this address: czurigad@axelero.hu




Both guitar sound acoustic during the whole song.




Intro:

Guitar1:

E------0---0---0-------0---0---0-------0---0---0-------0---0---0----
B------2---2---2-------0---0---0-------2---2---2-------0---0---0----
G----4---4---4---4---2---2---2---2---4---4---4---4---2---2---2---2--
D--4---------------4---------------4---------------4----------------
A-------------------------------------------------------------------
E-------------------------------------------------------------------

Guitar2:

E-----------------------------------------5-4-4-4/5-----------------
B---------------------------------------2---------------------------
G-------------------------------------4-----------------------------
D-------------------------------------------------------------------
A-------------------------------------------------------------------
E-------------------------------------------------------------------

Guitar1:

E------0---0---0-------0---0---0-------0---0---0-------0---0---0----
B------2---2---2-------0---0---0-------0---0---0-------0---0---0----
G----4---4---4---4---2---2---2---2---2---2---2---2---2---2---2---2--
D--4---------------4---------------0---------------2----------------
A-------------------------------------------------------------------
E-------------------------------------------------------------------

Guitar2:

E------------9-9-9------------12--------------------------------------------
B----------7-------------10-9----9-7------------------7-9-10/9/7------------
G--------6-------------------------------------------------------9----------
D------------------------------------------------------------------11-9-11--
A---------------------------------------------------------------------------
E---------------------------------------------------------------------------




Verse1:

Guitar1:

E------0---0---0-------0---0---0-------0---0---0-------0---0---0----
B------2---2---2-------0---0---0-------0---0---0-------0---0---0----
G----4---4---4---4---2---2---2---2---2---2---2---2---2---2---2---2--
D--4---------------4---------------0---------------2----------------
A-------------------------------------------------------------------
E-------------------------------------------------------------------

E------0---0---0-------0---0---0-------0---0---0-------0---0--------
B------2---2---2-------0---0---0-------0---0---0-------0---0--------
G----4---4---4---4---2---2---2---2---2---2---2---2---2---2----------
D--4---------------4---------------0---------------2----------------
A-------------------------------------------------------------------
E-------------------------------------------------------------------




Bridge1:

Guitar1:

E-------------------------------------------------------------------
B-----3---3---3-------2---2---2------3---3---3------2---2---2-------
G-----4---4---4-------2---2---2------2---2---2------2---2---2-------
D-------------------2---2---2---2-0----0---0---0--------------------
A--2----2---2---2-4-------------------------------------------------
E------------------------------------------------2----2---2---2-----

E---------------------------------------------------------0---------
B-----3---3---3------2---2---2------3---3---3------2------0---------
G-----4---4---4------2---2---2------2---2---2------2----------------
D----------------------2---2---2-0----0---0---0---------------------
A--2----2---2---2-4-------------------------------------------------
E-----------------------------------------------2----2-4----4-------




Chorus1:

Guitar1:

E--------------------------------------------------------------------
B------0---0---0-------1---1---1-------1---1---1------3---3---3------
G------2---2---2-------0---0---0-------0---0---0------2---2---2------
D----2---2---2---2---3---3---3---3---3---3---3---3-0----0---0---0----
A--0-----------------------------------------------------------------
E------------------1---------------3---------------------------------

E--------------------------------------------------------------------
B------0---0---0-------1---1---1-------1---1---1------3---3----------
G------2---2---2-------0---0---0-------0---0---0------2---2----------
D----2---2---2---2---3---3---3---3---3---3---3---3-0----0------------
A--0-----------------------------------------------------------------
E------------------1---------------3---------------------------------

Guitar2:
[ Tab from: http://www.guitartabs.cc/tabs/w/winchester_jamie_and_robert_hrutka/last_one_out_tab.html ]
E--12-12-------12-12---------------10-10-----12-12-------------------
B--------10-10---------------------------8-8-------10----------------
G--------------------------------------------------------------------
D--------------------------------------------------------------------
A--------------------------------------------------------------------
E--------------------------------------------------------------------

E--12-12-------12-12---------------10-10-----12-12-------------------
B--------10-10---------------------------8-8-------10----------------
G--------------------------------------------------------------------
D--------------------------------------------------------------------
A--------------------------------------------------------------------
E--------------------------------------------------------------------





Bridge2: During this, there is a violin solo.

E------0---0---0-------0---0---0-------0---0---0-------0---0---0----
B------2---2---2-------0---0---0-------0---0---0-------0---0---0----
G----4---4---4---4---2---2---2---2---2---2---2---2---2---2---2---2--
D--4---------------4---------------0---------------2----------------
A-------------------------------------------------------------------
E-------------------------------------------------------------------

E------0---0---0-------0---0---0-------0---0---0-------0---0--------
B------2---2---2-------0---0---0-------0---0---0-------0---0--------
G----4---4---4---4---2---2---2---2---2---2---2---2---2---2----------
D--4---------------4---------------0---------------2----------------
A-------------------------------------------------------------------
E-------------------------------------------------------------------




Verse2:

Guitar1:

E------0---0---0-------0---0---0-------0---0---0-------0---0---0----
B------2---2---2-------0---0---0-------0---0---0-------0---0---0----
G----4---4---4---4---2---2---2---2---2---2---2---2---2---2---2---2--
D--4---------------4---------------0---------------2----------------
A-------------------------------------------------------------------
E-------------------------------------------------------------------

E------0---0---0-------0---0---0-------0---0---0-------0---0--------
B------2---2---2-------0---0---0-------0---0---0-------0---0--------
G----4---4---4---4---2---2---2---2---2---2---2---2---2---2----------
D--4---------------4---------------0---------------2----------------
A-------------------------------------------------------------------
E-------------------------------------------------------------------




Bridge3:

Guitar1:

E-------------------------------------------------------------------
B-----3---3---3-------2---2---2------3---3---3------2---2---2-------
G-----4---4---4-------2---2---2------2---2---2------2---2---2-------
D-------------------2---2---2---2-0----0---0---0--------------------
A--2----2---2---2-4-------------------------------------------------
E------------------------------------------------2----2---2---2-----

E---------------------------------------------------------0---------
B-----3---3---3------2---2---2------3---3---3------2------0---------
G-----4---4---4------2---2---2------2---2---2------2----------------
D----------------------2---2---2-0----0---0---0---------------------
A--2----2---2---2-4-------------------------------------------------
E-----------------------------------------------2----2-4----4-------




Chorus2: The same as Chorus1




Chorus3: The same as Chorus1




Outro:

Guitar1:

E------0---0---0-------0---0---0-------0---0---0-------0---0---0----
B------2---2---2-------0---0---0-------2---2---2-------0---0---0----
G----4---4---4---4---2---2---2---2---4---4---4---4---2---2---2---2--
D--4---------------4---------------4---------------4----------------
A-------------------------------------------------------------------
E-------------------------------------------------------------------

Guitar2:

E--------------------------------------------------------------------
B--9-----------------------------------------------------------------
G--------------------------------9-6---------------------------------
D--------------------------------------------------------------------
A--------------------------------------------------------------------
E--------------------------------------------------------------------

Guitar1:

E------0---0---0-------0---0---0-------0---0---0-------0---0---0----
B------2---2---2-------0---0---0-------0---0---0-------0---0---0----
G----4---4---4---4---2---2---2---2---2---2---2---2---2---2---2---2--
D--4---------------4---------------0---------------2----------------
A-------------------------------------------------------------------
E-------------------------------------------------------------------





Final accord:

  F#
E x
B 2
G 2
D 4
A 4
E 2

Comments