Winchester Jamie And Robert Hrutka - Here Today Gone Today Chords & Tabs

 

Here Today Gone Today Chords & Tabs

Winchester Jamie And Robert Hrutka Chords & Tabs

Version: 1 Type: Tab 0 ratings
1 star 2 stars 3 stars 4 stars 5 stars
comments

Here Today Gone Today Tab

   
Jamie Winchester & Hrutka RĂ³bert: Here Today, Gone Today (album version)
Tab was done by Daniel Czuriga
notes and corrections must be sent to this address: czurigad@axelero.hu


I. Vocal part:




Intro:

Guitar1:

E-----------I----------------------I-------------------------I-------------------------
B--5-4-5-4--I----------------------I-------------------------I------9-12---------------
G------6-4--I--8-9-6-6-11-9-8/9-9--I-------------------------I-------------------------
D-----------I----------------------I----------------------2--I--7/9--------------------
A-----------I----------------------I--12-11-9-7/9/7-----7-2--I-------------------------
E-----------I----------------------I----------------7/9---0--I-------------------------

Guitar2:

E-----------I----------------------I-------------------------I-------------------------
B-----------I----------------------I-------------------------I-------------------------
G-----------I----------------------I-------------------------I-------------------------
D-----------I------7------(6)------I----------------------2--I-------------------------
A-----------I----7------(6)--------I----------------------2--I-------------------------
E-----------I--5-----5-4-----3-----I----------------------0--I-------------------------




Verse1:

Guitar1:
                                       * 
E------7--------------I-----------------I-------------------------I-------------------------I-------------------------
B--9-9---9---------9--I--4/5---7-----7--I----------5--------------I-------------------------I------9-12---------------
G----------8-9/8-9----I------6-----6----I----6-------4/3---2------I-------------------------I-------------------------
D---------------------I----------7------I----6---4---------2---4--I----------------------2--I--7/9--------------------
A---------------------I-----------------I--4-----4-------0-----4--I--12-11-9-7/9/7-----7-2--I-------------------------
E---------------------I-----------------I------0-2-----------0-2--I----------------7/9---0--I-------------------------

Guitar2:

E---------------------I-----------------I-------------------------I--------------------------
B---------------------I-----------------I-------------------------I--------------------------
G---(9)---(8)----(6)--I--------(7)--(7)-I----6-------------2------I--------------------------
D----(9)---(9)--(6)---I----(7)-----(7)--I----6---4---------2---4--I-----------------------2--
A--7-----6-----4---(4)I---(7)---5-(5)---I--4-----4-------0-----4--I-----------------------2--
E---------------------I--5----5---------I------0-2-----------0-2--I-----------------------0--




Verse2:

Guitar1: The same as in Verse1, only different in the part signed by * in Verse1.

E-----------
B----7------
G-----------
D--7---7----
A-----------
E-----------

at the end of Verse1 the 12 freet sound on B string is missing.

Guitar2: The same as in Verse1





Verse3:

Guitar1:

E-----------I----------------------I-----------------I
B--5-4-5-4--I----------------------I-----------------I
G------6-4--I--8-9-6-6-11-9-8/9-9--I----4/6-4-6/9-9--I
D-----------I----------------------I--7--------------I
A-----------I----------------------I-----------------I
E-----------I----------------------I-----------------I

E------------------------I-------------------------I---------I
B--4/5-------------------I-------------------------I------9--I
G------6-6-11-9-8/9-9-9--I-------------------------I---------I
D------------------------I----------------------2--I--7/9----I
A------------------------I--12-11-9-7/9/7-----7-2--I---------I
E------------------------I----------------7/9---0--I---------I

E-----------I----------------------I-----I
B--5-4-5-4--I----------------------I-----I
G------6-4--I--8-9-6-6-11-9-8/9-9--I-----I
D-----------I----------------------I-----I
A-----------I----------------------I--0--I
E-----------I----------------------I--2--I

Guitar2:

E-----------I----------------------I----------------------------I
B-----------I----------------------I----------------------------I
G-----------I----------------------I-----------------------(4)--I
D-----------I------7------(6)------I-----(4)----(6)----(7)-(4)--I
A-----------I----7------(6)--------I---(4)----(6)----(7)----2---I
E-----------I--5-----5-4------3----I--2------4------5-----------I

E-------------------I-----------------------I--------------------I-----I
B-------------------I-----------------------I--------------------I-----I
G-------------------I-----------------------I--------------------I-----I
D------7------(6)---I--------------------2--I------7------(6)----I-----I
A----7------(6)-----I--------------------2--I----7------(6)------I--0--I
E--5-----5-4-----3--I--------------------0--I--5-----5-4------3--I--2--I




I. Instrumental part:




Intro:

Guitar1: acoustic sound

   E, X (I don't know how this accord is called)
E  0  0
B  0  0
G  1  3   X8
D  2  4
A  2  4
E  0  0

Guitar 2: Enters with the 6th Guitar1 accord, acoustic sound, a little Chorus pedal does good.

E----------------------I--11/12/11/12/11/12/...---I------------I
B--9-12-11----9-12-11--I--------------------------I--9/11------I
G----------11----------I--------------------------I-------8/9--I
D----------------------I--------------------------I------------I
A----------------------I--------------------------I------------I
E----------------------I--------------------------I------------I




Solo:

Guitar1: acoustic sound, these accords till the end of the song

   C#m, A, F#m, E
E   4   5   2   0
B   5   5   2   0
G   6   6   2   1
D   6   7   4   2
A   4   7   4   2
E   x   5   2   0

Guitar 2: acoustic sound, little Chorus pedal

E--9-11-12-11-9--------------------------------------------------------12-11-11-9-----
B---------------12-9------9-9-------------------------------------9-12------------12--
G--------------------11-9-----9------8-9-8---------------8---8-11---------------------
D-------------------------------11-11------11-9------------9--------------------------
A-----------------------------------------------11-9-9-11-----------------------------
E-------------------------------------------------------------------------------------

E----------------------------------------------9-9----12/9-16-17-17-19/17/16----------
B--12/10/9--------9--------------9--------9-12-----12------------------------17-------
G----------9-9/11---9--------8/9---11-8/9---------------------------------------16----
D---------------------9/11-9----------------------------------------------------------
A-------------------------------------------------------------------------------------
E-------------------------------------------------------------------------------------

E-----------16------------------------------------------------------------------------
B--------19----17-16-------------------------------17-16------------------------------
G--------------------18-16-------------------18-16-------16-18-16-11-9----------------
D--19/18-------------------19-18---/18-18/19---------------------------9-9----9-------
A--------------------------------19/---------------------------------------11---11-9--
E-------------------------------------------------------------------------------------
[ Tab from: http://www.guitartabs.cc/tabs/w/winchester_jamie_and_robert_hrutka/here_today_gone_today_tab.html ]
E--------------------------9-12-11-11-14-11-------------------------12/11-14-12-16----
B---------------------9-12------------------12----------------------------------------
G-------------------9--------------------------11----11----11-13/14-------------------
D--------------9/11-------------------------------14----14----------------------------
A--------9/11-------------------------------------------------------------------------
E--12-12------------------------------------------------------------------------------

E--17/16-17/16-17/16-17-17-17/16-17/16-17-19/17/16----------------------16-------16---
B--------------------------------------------------17----------------19----17-------16
G-----------------------------------------------------16-------16-------------18------
D--------------------------------------------------------19/18----18------------------
A-------------------------------------------------------------------------------------
E-------------------------------------------------------------------------------------

E--------------------------------19----17----16---------------------------------------
B-----16-------------------19-------17-------------19-19/17/16----------------------17
G--------16----16-------------16----------18----16-------------16-------------13/14---
D--18-------------16----16----------------------------------------16----16------------
A-----------19-------19----------------------------------------------19----19---------
E-------------------------------------------------------------------------------------

E-----------------------------------------------------------------16------------------
B--15/16----17----15/16----17----15/16----17----15/16----17----19----19/16------------
G--------13----13-------13----13-------13----13-------13----13-------------16---------
D-----------------------------------------------------------------------------16-16---
A-----------------------------------------------------------------------------------19
E-------------------------------------------------------------------------------------

E--------------------------12----12-12---------------------------------------9-11-12--
B--------------------------12/14-12-14-9-12------12------------------9-10-12----------
G--------18-16------------------------------11/9----11/9--------9-11------------------
D--18/19-------19-18/16----------------------------------9-9/11-----------------------
A-----------------------19------------------------------------------------------------
E-------------------------------------------------------------------------------------

E--14-16-17-17-19-19/16-19-19/17-21-19/17-21-19/17-21-21-17/19/18-17/19/18-19-19/18---
B-------------------------------------------------------------------------------------
G-------------------------------------------------------------------------------------
D-------------------------------------------------------------------------------------
A-------------------------------------------------------------------------------------
E-------------------------------------------------------------------------------------

E--19-19/18-19-19/18-19-21-17-19/16----------------16---------------------------------
B-----------------------------------17----------19----17/16-14----------------------12
G--------------------------------------16-16/14----------------16/13-11-------11-13---
D-----------------------------------------------------------------------14-14---------
A-------------------------------------------------------------------------------------
E-------------------------------------------------------------------------------------

E-----------------------------------------------12/11-11-14/12-16/12----17----19/16---
B--------------------------------------12----14----------------------12----12-------17
G--11-------------------------11----13----14------------------------------------------
D-----14-11-14-------------11----14---------------------------------------------------
A--------------------11/14------------------------------------------------------------
E--------------12/14------------------------------------------------------------------

E--------------------------------------------12-16-14/12-16-14/12-16-14/12-16-14/12---
B--19-19-17-17-16-16-14----------------10/12------------------------------------------
G-----------------------------------13------------------------------------------------
D-----------------------14/13-13/14---------------------------------------------------
A-------------------------------------------------------------------------------------
E-------------------------------------------------------------------------------------

E--16-14/12-16-14/12-16-14/12-16-14/12-17-16/14-14-17-16/14-14-17-16/14-14-17-16/14-14
B-------------------------------------------------------------------------------------
G-------------------------------------------------------------------------------------
D-------------------------------------------------------------------------------------
A-------------------------------------------------------------------------------------
E-------------------------------------------------------------------------------------

E--19-17-19-17-19-17-19-17-19-17-19-17-21-17-17-19-19-16----16-17/16------------------
B--------------------------------------------------------17----------19/17------------
G--------------------------------------------------------------------------16/18-18-18
D-------------------------------------------------------------------------------------
A-------------------------------------------------------------------------------------
E-------------------------------------------------------------------------------------

E-----------------------------------------------------------------------------11------
B--------------------------------------------------12-12----------14-14---------------
G--18/20-20/18-18/16-16/14-14-14/13-13-------------------13-------------13-------13---
D--------------------------------------16-16/14-14----------14-14----------14-------14
A-------------------------------------------------------------------------------------
E-------------------------------------------------------------------------------------

                                                                 >This is impro........
E--12-14-16-17-19/17/16-------------------16------------------------------------------
B-----------------------17-------------19----17/16------------------------------------
G--------------------------16----16----------------18-16-------16---------------------
D-----------------------------19----19-------------------16/18----16------------------
A--------------------------------------------------------------------19/16-19---------
E-----------------------------------------------------------------------------12/14---
           
........till here<
E--------------------------------------------12-10/11---12--11---12---14----14----16--
B-----------------12-10-14-12-14-12-14-12-14----------9---9----9----9----12----12-----
G-----------11------------------------------------------------------------------------
D--------11----14---------------------------------------------------------------------
A--11/14------------------------------------------------------------------------------
E-------------------------------------------------------------------------------------

E-----17-19-19/17/16-----
B--14----------------17--
G------------------------
D------------------------
A------------------------
E------------------------




Outro:

Guitar 2: acoustic sound, little Chorus pedal

E-----------------------------------12--------12/11--------------------------
B--------------------------12-11-14-----------------14-12/9/7----------------
G-----------------11----13------------------------------------6/4------------
D--------------11----14-------------------------------------------(6/4)------
A--------11-14----------------------------------------------------------(7)--
E--12-14---------------------------------------------------------------------



Comments