Winchester Jamie And Hrutka Robert - Hide And Seek Chords & Tabs

 

Hide And Seek Chords & Tabs

Winchester Jamie And Hrutka Robert Chords & Tabs

Version: 1 Type: Tab 0 ratings
1 star 2 stars 3 stars 4 stars 5 stars
comments

Hide And Seek Tab

Jamie Winchester & Hrutka RĂ³bert: Hide and Seek (Howard Jones Cover)
Tab was done by Daniel Czuriga
notes and corrections must be sent to this address: czurigad@axelero.hu



Intro:

Guitar1:

E---------1-----0-----1---------------------------------------3---------3-----------1-------------0---
B-------3---3-----3-----3---------1-----1-------1---------------3---------3-------3---3---3-----1-----
G-----2-------2-----2-----2-----0---0---------0---0---------0---------------0---2-------2-----0-------
D---0-------------------------2-------2-----2-------2-----0-0---------0-------0-------------0---------
A---------------------------0-------------0-------------2-----------2---------------------------------
E-----------------------------------------------------3-----------3-----------------------------------

Guitar2:

E------------------------------------------------------------------------------------------------------
B---------------------------trill.---------------------------------------------------------------------
G------9-10-12-12>14-----10-9/10/9---------------------------------------------------------------------
D---12---------------12------------12-10----10-12-14-12>10-12------------------------------------------
A----------------------------------------12-------------------10-12-10---------------------------------
E----------------------------------------------------------------------13-12-10-13-12------------------



Verse1:

Guitar1:

E---------5-------3-------1---------1-------3-------5-------3-------1---------1-------3-------5--------
B-------6-------5-------3---3-----3-------5-------6-------5-------3---3-----3-------5-------6----------
G-----7-------5-------3---------3-------5-------7-------5-------3---------3-------5-------7------------
D---0-------0-------0---------0-------0-------0-------0-------0---------0-------0-------0--------------
A------------------------------------------------------------------------------------------------------
E------------------------------------------------------------------------------------------------------



Bridge1:

Guitar1:

E-----------------------------------------------------------------------------------------3-----3-----3-------
B---------1-----------3-------------1-------------3-----------1-------------3-----------3---3-----3-----3-----
G-------3---3-------0---0---------3---3---------0---0-------3---3---------0---0---0---2-------2-----2-----2---
D-----3-------3---2-------2-----3-------3-----2-------2---3-------3-----2-------2---0-------------------------
A---1-----------3-----------0-1-----------0-3-----------1-----------0-3---------------------------------------
E-------------------------------------------------------------------------------------------------------------

Guitar2: 

E---------12-------10----------------10-------------------12-------10----------------10---------------
B------11----11-------11----13----------------13-------11----11-------11----13----------------13------
G---10----------10-------10----12-------12-------12-10----------10-------10----12-------12-------12---
D---------------------------------10-------10-------------------------------------10-------10---------
A-----------------------------------------------------------------------------------------------------
E-----------------------------------------------------------------------------------------------------

E---------12-------10----------------10----------------------------10-----------------------------------
B------11----11-------11----13----------------13----10-------10-----------------------------------------
G---10----------10-------10----12-------12-------12-----------------------------------------------------
D---------------------------------10-------10-----------------------------------------------------------
A-------------------------------------------------------------------------------------------------------
E-------------------------------------------------------------------------------------------------------



Chorus1:

Guitar1:

E---2-2-------------0-0-----------3---------0-------------2-------------0-------------3-----------------------
B---3---3---------3-----------------3---------3---------3---3---------3---3-------------3-----------3---------
G---2-----2-----2-------2-0-----0---------0-----0-----2-------2-0---2-------2-0-----0-------0-----0---0-------
D---0-------------------------0---------2---------0-0-----------------------------0-------0-----2-------2-0---
A---0-------0-2-----------------------0---------------------------2---------------------------0---------------
E---------------------------3---------------------------------------------------3-----------------------------
[ Tab from: http://www.guitartabs.cc/tabs/w/winchester_jamie_and_hrutka_robert/hide_and_seek_tab.html ]
E---------------------------------------------------------------------------------------3-----3-----3---------
B---------1-----------3-------------1-------------3-----------1-------------3-------------3-----3-------------
G-------3---3-------0---0---------3---3---------0---0-------3---3---------0---0-----2-2------2-----2----------
D-----3-------3---2-------2-----3-------3-----2-------2---3-------3-----2-------2-0---------------------------
A---1-----------3-----------0-1-----------0-3-----------1-----------0-3---------------------------------------
E-------------------------------------------------------------------------------------------------------------

Guitar2:

E------10-------10-------10----10-------10-------10---10-----10--------10------10------10---
B---------10-------10-------12----12-------12-------8----8------8---------10------10--------
G---11-------11-------11-------------11-------11-----------7------7--9-------9-------9------  X2
D-------------------------------------------------------------------------------------------
A-------------------------------------------------------------------------------------------
E-------------------------------------------------------------------------------------------

Plays the same as Guitar2 in Bridge1, except that the last two sounds on string B (at 10th fret) is missing.



Solo: Guitar1 plays the same as during the intro, but twice.

Guitar2

E----------------------------------------------------------------------------------------------------------------
B---------10/11/10-11/10-11/10-11/10----6-5-8-6/5-5--------------------------------10--------------------10------
G---10/12----------------------------10-7-5-9-7/5-5-7-5-5----9-10/9-------------12----10/9/7---7-9-10-12----12---
D---------------------------------------------------------12--------12-10-12-----------------7-------------------
A----------------------------------------------------------------------------10----------------------------------
E----------------------------------------------------------------------------------------------------------------
                                              trill.  
E---------trill.---10----12-10-------10-12-13-12/13/12-10-12-13----------------------------------10-13-12--------
B---13-11-10/11/10----13----------10----------------------------10-10-------------------13----------------10-----
G------------------------------10----------------------------------------------10-14/12----12/14-------------9---
D---------------------------------------------------------------------------10-----------------------------------
A---------------------------------------------------------------------10/12--------------------------------------
E----------------------------------------------------------------------------------------------------------------

E--------10--------------------------------------------------------------------------13-10---
B-----------13-12-----------------------------------------------------10-10----13-10---------
G---9/10----------12-------9-10/9-------------------------------10-10-------12---------------
D--------------------12-12--------12-10-9-9/10/9----------12-12------------------------------
A------------------------------------------------12-10-12------------------------------------
E--------------------------------------------------------------------------------------------



Verse2:

Guitar1: The same as in Verse1.



Bridge2:

Guitar1:

E---------------------------------------------------------------------------------3-----3-----3-------
B---------1-----------3-----------1-----------3-----------1-----------3---------3---3-----3-----3-----
G-------3---3-------5---5-------3---3-------5---5-------3---3-------5---5-----2-------2-----2-----2---
D-----3-------3---5-------5---3-------3---5-------5---3-------3---5-------5-0-------------------------
A---1-----------3-----------1-----------3-----------1-----------3-------------------------------------
E-----------------------------------------------------------------------------------------------------

Guitar2:

E-----------------------------------------------------------------------------------------10--------10---
B-------1-3-1-------5-3-5/3-------1-3-1-------5-3-5/3-------1-3-1-------5-3-5/3------10--------10--------
G-----3-----------5---------5---3-----------5---------5---3-----------5---------5------------------------
D---3---------3-5-------------3---------3-5-------------3---------3-5------------------------------------
A--------------------------------------------------------------------------------------------------------
E--------------------------------------------------------------------------------------------------------



Chorus2:

Guitar1: The same as Guitar1 in Chorus1, but plus two sounds to the end: string B fret 3 and string G fret 2.

Guitar2: The first part is the same as Guitar2 in Chorus1, the second part is the same as Guitar2 in Bridge2.



Outro:

Guitar1:
                                              Hold it!
E---------5-------3-------1---------1-------3-5---
B-------6-------5-------3---3-----3-------5---6---
G-----7-------5-------3---------3-------5-----7---
D---0-------0-------0---------0-------0-------7---
A---------------------------------------------5---
E---------------------------------------------5---



Comments