Wilt - Never Enough Chords & Tabs

 

Never Enough Chords & Tabs

Wilt Chords & Tabs

Version: 1 Type: Tab 0 ratings
1 star 2 stars 3 stars 4 stars 5 stars
comments

Never Enough Tab

   
Artist:Wilt
Song:Never Enough
Tabbed by: Matt Lovell (Frogstomper)

This song is not on any of the albums, it was on a free CD that was given out at their
gigs. This is an amazing song and should have been put on an album.

Tunning:  Drop D. D,A,D,G,B,E.


  Intro (Distorted)
e|-------------------------------------------------------------------------
B|-------------------------------------------------------------------------
G|-------------------------------------------------------------------------
D|-0--0-0-0-0-0-0-0-0-0-0-0-0-0-0-0-0-0-0-0-0-0-0-0-0-0-0-0-0-0-0-0--0-0-0-
A|-------------------------------------------------------------------------
D|-------------------------------------------------------------------------

e|-------------------------------------------------------------------------
B|-------------------------------------------------------------------------
G|----------------------------------------------------2- Strike this note
D|0-0-0-0-0-0-0-0-0-0-0-0-0-0-0-0-0-0-0-0-0-0-0-0-00--0- about 55 times or 
A|------------------------------------------------------ listen to the song 
D|------------------------------------------------------ if you have it.


  Verse (Distorted)                                x5
e|----------------------------------------------------|
B|----------------------------------------------------|
G|-----------------------7-------------------------7--|
D|-3--3-3-3-3-3-3--3-3-0---0-7--7-7-7-7-7-7--7-7-0---0|
A|-3--3-3-3-3-3-3--3-3-0-5-0-7--7-7-7-7-7-7--7-7-0-5-0|
D|-3--3-3-3-3-3-3--3-3-0---0-7--7-7-7-7-7-7--7-7-0---0|
 PM  |---|   |-|               |---|   |-|            

  Then play this to end the verse. 
e|--------------------------------------------------------|
B|--------------------------------------------------------|
G|-----------------------7--------------------------------|
D|-3--3-3-3-3-3-3--3-3-0---0-7--7-7-7-7-7-7-7-7-7-7-7-7-7-|
A|-3--3-3-3-3-3-3--3-3-0-5-0-7--7-7-7-7-7-7-7-7-7-7-7-7-7-|
D|-3--3-3-3-3-3-3--3-3-0---0-7--7-7-7-7-7-7-7-7-7-7-7-7-7-|
 PM  |---|   |-|               |-------------------------|


  Chorus (Distorted)                                                   x3
e|-------------------------------------------------------------------------|
B|-------------------------------------------------------------------------|
G|-10-10-10-10-10-10-10-10-5--5--5--5--5--5--5--5--0---0-7/(9)9--9--7--5--7|
D|-8--8--8--8--8--8--8--8--3--3--3--3--3--3--3--3--0---0-------------------|
A|-8--8--8--8--8--8--8--8--3--3--3--3--3--3--3--3--0---0-5/(7)7--7--5--3--5|
D|-8--8--8--8--8--8--8--8--3--3--3--3--3--3--3--3--0---0-------------------|
[ Tab from: http://www.guitartabs.cc/tabs/w/wilt/never_enough_tab.html ]
  Play this to end the chorus                   Let ring
e|------------------------------------------------------| Then play verse
B|------------------------------------------------------| riff x2 without
G|-10-10-10-10-10-10-10-10-5--5--5--5--5--5--5--2-------| any palm mutes
D|-8--8--8--8--8--8--8--8--3--3--3--3--3--3--3--0-------| before playing
A|-8--8--8--8--8--8--8--8--3--3--3--3--3--3--3----------| verse 2.
D|-8--8--8--8--8--8--8--8--3--3--3--3--3--3--3----------|


  Verse 2 (Distorted)                                            x3
e|------------------------------------------------------------------|
B|------------------------------------------------------------------|
G|------------------------------------------------------------------|
D|-3-3-3-3-3-3-3-3-3-3-3-3-3-0-0-0-77-7-7-7-7-7-7-7-7-7-7-7-5-5-5-5-|
A|-3-3-3-3-3-3-3-3-3-3-3-3-3-0-0-0-77-7-7-7-7-7-7-7-7-7-7-7-3-3-3-3-|
D|-3-3-3-3-3-3-3-3-3-3-3-3-3-0-0-0-77-7-7-7-7-7-7-7-7-7-7-7---------|
PM|----------------------------------------------------------------|
  End verse 2 with this
e|-------------------------------------------------------------------|
B|-------------------------------------------------------------------|
G|-------------------------------------------------------------------|
D|-3-3-3-3-3-3-3-3-3-3-3-3-3-0-0-0-7-7-7-7-7-7-7-7-7-7-7-7-7-7-7-7-7-|
A|-3-3-3-3-3-3-3-3-3-3-3-3-3-0-0-0-7-7-7-7-7-7-7-7-7-7-7-7-7-7-7-7-7-|
D|-3-3-3-3-3-3-3-3-3-3-3-3-3-0-0-0-7-7-7-7-7-7-7-7-7-7-7-7-7-7-7-7-7-|
PM|------------------------------------------------------------|      

  Then play chorus riff x3 before playing the solo.

  Solo
e|-------------------------------------------------------------|
B|-------------------------------------------------------------|
G|-------------------------------------------------------------|
D|-------------------------------------------------------------|
A|-/(9)9-9-10-9-5~~~/(9)9-9-10-9-5~~~/(9)9-9-10-9-7-5-5/(7)~~~~|
D|-------------------------------------------------------------|

  Then play this                                                 x4
e|-----------------------------------------------------------------|
B|-----------------------------------------------------------------|
G|-------------------------7-7-7-7-------------------------7-7-7-7-|
D|-3-3-3-3-3-3-3-3-3-3-3-3---------7-7-7-7-7-7-7-7-7-7-7-7---------|
A|-3-3-3-3-3-3-3-3-3-3-3-3-5-5-5-5-7-7-7-7-7-7-7-7-7-7-7-7-5-5-5-5-|
D|-3-3-3-3-3-3-3-3-3-3-3-3---------7-7-7-7-7-7-7-7-7-7-7-7---------|

  Then play this
  (clean)                              x2  (Distorted)
e|---------------------------------------|--------------------|After this 
B|---------0------------------0------5---|--------------------|play chorus
G|-----5-----5-----5------5-----5------4-|-----7/(9)9-9-7-5-7-|riff x6
D|---5---5-----5--------5---5------------|-0-0----------------|
A|-3-------------3----3------------3-----|-0-0-5/(7)7-7-5-3-5-|
D|---------------------------------------|-0-0----------------|

  Outro (whilst last note of chorus is still ringing)
e|----------------------------|
B|-----------------7~~~~~~7~~~|
G|----------------------------|
D|(0)-------------------------|
A|(0)-------------------------|
D|(0)-------------------------|

| /  slide up
| \  slide down
| h  hammer-on
| p  pull-off
| ~  vibrato
| +  harmonic
| x  mute note
| PM palm mute
Comments