Wilson Pickett - Mustang Sally Chords & Tabs

 

Mustang Sally Chords & Tabs

Wilson Pickett Chords & Tabs

Version: 1 Type: Bass Tab 0 ratings
1 star 2 stars 3 stars 4 stars 5 stars
comments

Mustang Sally Bass Tab

   
Mustang Sally
Wilson Pickett
TablEdited by Poppamies
Tuning : E A D G 	Time Signature: 4/4

 tempo 116       |       |        |       |       |       |        
|--------------------------------|--------------------------------|
|--------------------------------|--------------------------------|
|3---------------------------1---|3---------------------------1---|
|------------2-------3-----------|------------2-------3-----------|

 |       |       |       |        |       |       |       |        
|--------------------------------|--------------------------------|
|--------------------------------|--------------------------------|
|3---------------------------1---|3---------------------------1---|
|------------2-------3-----------|------------2-------3-----------|

 |       |       |       |        |       |       |       |        
|--------------------------------|--------------------------------|
|----continues until.......------|--------------------------------|
|--------------------------------|3-------------------3-----------|
|--------------------------------|------------2---3-------2---2---|

 |       |       |       |        |       |       |       |        
|--------------------------------|--------------------------------|
|----------------------------1---|----------------------------1---|
|------------2-------3-----------|------------2-------3-----------|
|1-------------------------------|1-------------------------------|
[ Tab from: http://www.guitartabs.cc/tabs/w/wilson_pickett/mustang_sally_btab.html ]
 |       |       |       |        |       |       |       |        
|--------------------------------|--------------------------------|
|----------------------------1---|----------------------------1---|
|------------2-------3-----------|------------2-------3-----------|
|1-------------------------------|1-------------------------------|

 |       |       |       |        |       |       |       |        
|--------------------------------|--------------------------------|
|--------------------------------|--------------------------------|
|3---------------------------1---|3---------------------------1---|
|------------2-------3-----------|------------2-------3-----------|

 |       |       |       |        |       |       |       |        
|--------------------------------|--------------------------------|
|--------------------------------|--------------------------------|
|3---------------------------1---|3-----------------------3-------|
|------------2-------3-----------|------------2-------3-----------|

 |       |       |       |        |       |       |       |        
|--------------------------------|0-------------------------------|
|--------------------0-------3---|----------------0---0-----------|
|------------4-------------------|------------4-------------------|
|3-------------------------------|------------------------2---2---|

 |       |       |       |        |       |       |       |        
|--------------------------------|--------------------------------|
|--------------------------------|--------------------------------|
|--------------------------------|--------------------------------|
|1-------------------------------|--------------------------------|

Transcribe! 6.0 transcription http://www.seventhstring.demon.co.uk/
Created with TablEdit http://www.tabledit.com/
http://www.geocities.com/jani_bjorklund/janis.html
Comments