Willis - Dsls Chords & Tabs

 

Dsls Chords & Tabs

Willis Chords & Tabs

Version: 1 Type: Chords 0 ratings
1 star 2 stars 3 stars 4 stars 5 stars
comments

Dsls Chords

#----------------------------------PLEASE NOTE---------------------------------#
#This file is the author's own work and represents their interpretation of the #
#song. You may only use this file for private study, scholarship, or research. #
#------------------------------------------------------------------------------#

Date: Wed, 17 Dec 1997 16:20:53 -0500
From: Ron Hanna 
Subject: TAB: DSLs by Willis


From:  Ronald L Hanna, AKA "Boyd Wookie" 
Subject: TAB: DSLs, Willis
Date: 12/16/97
Note: These guys rock. They're on the rise in Chicagoland 
and had a small tour of elite clubs in Belgium.  Definitely 
worth kickin' down a couple bones for. (one of their 
guitarists looks like Mr. Bean)


DSLs                          By Willis     From Elastic Slacks

Verse
Moderate Pace
This riff is played throughout the whole song except
for the chorus and outro.

E:----------------------------------------
B:----------------------------------------               
G:---2--2--2----------2---2--2--2--------- > 3x then singing 
D:---2--2--2----------2---2--2--2---------      over same riff
A:---0--0--0----------0---0--0--0---------
E:------------0---3-----------------0---3-
        You're the one baby, you got them........

Chorus

E:----------------------------------------
B:----------------------------------------
G:--4--4--4--4--4--4--4-/-7--7--7--7--7--- 
D:--4--4--4--4--4--4--4-/-7--7--7--7--7---
A:--2--2--2--2--2--2--2-/-5--5--5--5--5---
E:----------------------------------------
  Tonight you're gonna love me....
			Tonight you're gonna use them..
[ Tab from: http://www.guitartabs.cc/tabs/w/willis/dsls_crd.html ]
E:---------------------------------------------
B:---------------------------------------------               
G:---2--2--2----------2---2--2--2-----------2--  
D:---2--2--2----------2---2--2--2-----------2--      
A:---0--0--0----------0---0--0--0-----------0--
E:------------0---3-----------------0---3------
    DSLs..

E:----------------------------------------
B:----------------------------------------
G:---4--4--4--4--4--4--4-/--7--x----------
D:---4--4--4--4--4--4--4-/--7--x----------
A:---2--2--2--2--2--2--2-/--5--x----------
E:----------------------------------------
Tonight you're gonna rub me....
			          But I ain't gonna kiss them...

     Ending
E:---------------------------------------
B:---------------------------------------
G:----2p0------------2-------------------   repeat 4 times then end        
D:-------2p0---------2-------------------   on A major.  
A:----------2p0------0-------------------   Do not ring out the A.
E:---------------3-----------------------


Verse 1
You're the one baby
You got them DSLs
You're the one baby
I'm hearing wedding bells

Chorus       Tonight you're gonna love me
	       Tonight you're gonna use them DSLs
             Tonight you're gonna rub me
             But I ain't gonna kiss them DSLs

Verse 2
My friends all tell me
You're a livin' hell
But I don't care
I need your DSLs

Chorus...

Verse 3

Now that you're with me
I'm feelin' pretty swell
I've waited most my life 
For them DSLs

Chorus...

Repeat 1st verse

Nah, Nah, Nah Nah 
Nah, Nah, Nah Nah 
Nah, Nah, Nah Nah 
Nah, Nah, Nah Nah 
Nah, Nah, Nah Nah 
Nah, Nah, Nah Nah 
Nah, Nah, Nah Nah 
Nah, Nah, Nah Nah 
Comments