Willie Nelson - Blue Eyes Crying In The Rain Chords & Tabs

 

Blue Eyes Crying In The Rain Chords & Tabs

Willie Nelson Chords & Tabs

Version: 1 Type: Tab 0 ratings
1 star 2 stars 3 stars 4 stars 5 stars
comments

Blue Eyes Crying In The Rain Tab

this is the solo in the middle of the song ok

--------2-------2/4-----4b-----4--------4b--4-------7----6-
------5-----------------------------5-----------5--9----8--
----4-----------------------------4------------------------
-----------------------------------------------------------
-----------------------------------------------------------


--5--------4---2---(2)-------5------7------7--------------2-
--7---------------------------------------9------------5----
-------------------------4---------------------------4------
--------------------------------------------------(9)-------
------------------------------------------------------------
------------------------------------------------------------
[ Tab from: http://www.guitartabs.cc/tabs/w/willie_nelson/blue_eyes_crying_in_the_rain_tab.html ]
--2h4-----4--4--4b----4---(4)------2---4--4b----2b4p2-----4-
----------------------------------5---------5h3-------------
---------------------------------4---------4----------------
---------------------------------------(9)------------------
------------------------------------------------------------
------------------------------------------------------------

--2------4h2--2-------2h4--2--------------------------------
------------------------------5-----5----4-------3--------3-
--------------------4-------------------2-------1--------0--
------------------------------------------------------------
--------------------------------------3-------2----2--1---1-
------------------------------------------------------------

------------------------------------------------------------
-------------2----------------------------------------------
---------2--------------------------------------------------
------------------------------------------------------------
-----0------------------------------------------------------
------------------------------------------------------------

ok that is the solo for this song . this is also my first time
typing tab up so bear with me ok im tryin. have fun with it and
make it your own.

tabbed by Chet
Comments