Williams Robbie - Song Chords & Tabs

 

Song Chords & Tabs

Williams Robbie Chords & Tabs

Version: 1 Type: Tab 0 ratings
1 star 2 stars 3 stars 4 stars 5 stars
comments

Song Tab

   
Title:	Song 3
Artist: Robbie Williams	
Album: 	Escapology
Date: 	02/02/03
Tab by: Ste
Email: 	pretend_best_friend666@yahoo.com


The main chunk of this is pretty easy, I haven't worked out the little
arpeggio's in the bridge though, although I think they are based around 
F and G


Main Riff (Intro and Verse)
[ Tab from: http://www.guitartabs.cc/tabs/w/williams_robbie/song_tab.html ]
e---------------------------------------------------------------------
B---------------------------------------------------------------------
G---------------------------------------------------------------------
D--3---5---8---5---3---5---10-10--8-----------------------------------
A--3---5---8---5---3---5---10-10--8-----------------------------------
E--1---3---6---3---1---3---8--8---6-----------------------------------

Repeat that for the verses, then when you get to the bridge, it's a little
arpeggio which I haven't worked out, then the chorus kicks in like so:


e---------------------------------------------------------------------
B---------------------------------------------------------------------
G---------------------------------8-8-8-8-8-8-8-8-5-5-5-5-5-5-5-5-----
D-5-5-5-5-5-5-5-5-8-8-8-8-8-8-8-8-8-8-8-8-8-8-8-8-5-5-5-5-5-5-5-5-----
A-5-5-5-5-5-5-5-5-8-8-8-8-8-8-8-8-6-6-6-6-6-6-6-6-3-3-3-3-3-3-3-3-----
E-3-3-3-3-3-3-3-3-6-6-6-6-6-6-6-6-------------------------------------



That's the main bits anyway
Ste
Comments