Williams Robbie - Nobody Someday Riff Chords & Tabs

 

Nobody Someday Riff Chords & Tabs

Williams Robbie Chords & Tabs

Version: 1 Type: Tab 0 ratings
1 star 2 stars 3 stars 4 stars 5 stars
comments

Nobody Someday Riff Tab

   
|-----------------------------------------------------|
|Robbie Williams - Nobody Someday                     |
|-----------------------------------------------------|
|This is tabbed from listening over and over to the   |
|riff and song, so don't expect it to be exactly      |
|accurate. The riff is really hard to play fluently   |
|but when you can it sound real good. Any suggestions |
|comment or mail me at xenoxsis@xenoxsis.com          |
|- Xenoxsis                                           |
|-----------------------------------------------------|


Riff:
e | -------0-------0------0----0---2p0--------
B | -----0---0---0-------0h2-----------0------
G | ---2-------2-------------2-2-2------------
D | -----------------2-2-----------------(0*)-
A | ---------------------------4--------------
E | -0----------------------------------------
            I'm a gigolo...

* Played every 3rd time


Chords:
B:  224442
A:  x03330
A*: No chord, just let the A chord ring out




[ Tab from: http://www.guitartabs.cc/tabs/w/williams_robbie/nobody_someday_riff_tab.html ]
Comments