Williams Robbie - Nans Song Chords & Tabs

 

Nans Song Chords & Tabs

Williams Robbie Chords & Tabs

Version: 1 Type: Tab 1 rating
1 star 2 stars 3 stars 4 stars 5 stars
comments

Nans Song Tab

   
Tuning: standard
Author/Artist: Robbie Williams
Title: Nan’s Song
Album: Escapology
Transcribed by: Andreas Puschmann

This is nearly perfect! 

(~~ let it ring)
   

   INTRO, Verse, Pre Chorous:

   First guitar (Robbie, yes, Robbie played the guitar):

   e|-------2-------2-------2-------2-----|
   b|-------3-------3-------3-------3-----|
   g|-------2-------3-------0-------0-----|
   d|---0---0---4---4---2---2-------0-----|
   a|---------------------------2---2-----|
   e|-------------------------------------|
            
   
    Second Guitar (His great guitarplayer): 

                                              
   e|--------------------------------------------------------|
   b|-------------------------------------------------~~-|
   g|-------------------------------------------~~-------|
   d|---0-------4-------2-----------------~~-------------|
   a|---------------------------2----------------------------|
   e|--------------------------------------------------------|
      
 CHORUS:

   e|-3----------2--------0-------0------0-----------------|
   b|-3----------3--------1-------1------3-----------------|
   g|-0----------2--------0-------0------0-----------------|
   d|-0----------0--------2-------2------2-----------------|
   a|-2----------0--------3-------3------2-----------------|
   e|-3----------0--------0-------3------0-----------------|
      G          D        C      C/G     A        


Intro

Verse 1, (altern Chords):
[ Tab from: http://www.guitartabs.cc/tabs/w/williams_robbie/nans_song_tab.html ]
       D         D/Db            A             Em7                G
You said when you die that you’d walk with me every day.
       D       D/Db            A               Em7                G    
Then I start to cry and say please don’t talk that way.
        D           D/Db           A   		      Em7         G
With a blink of an eye the lord came and asked you to leave.
        D          D/Db           A              Em7              G         
You went to a better place but it stole you away from me.
    D  D/Db   A      Em7   G
And now she lives in heaven
     D   D/Db    A    Em7.
But I know they let her out.

To take care of me 

Chorus:
G		         D     G	        D
There’s a strange kind of light, caressing me tonight.
G	            D 		C	    C/G	          A
Pray silence my fear; she is near, bringing heaven down here.


Intro

Verse 2:
I miss your love, I miss your touch, but I’m feeling you every day.
And I can almost hear you say ‘You’ve come a long way baby’.
And now you live in heaven.
But I know they let you out.

To take care of me

Chorus:
There’s a strange kind of light, in my bedroom tonight.
 Pray silence my fear; she is near, bringing heaven down here.


Middle 8:
Bm			      A        Em          F#mF#
You taught me kings and queens, whilst stroking my head.
Bm		      A	    Em	       F#mF#
And in my darkest dark, I know you are there.
Bm                    A	 Em  		F#mF#
Leaning down besides me, whispering my prayers.


Chorus:
There’s a strange kind of light, caressing me tonight.
Pray silence my fear; she is near, bringing heaven down here.

G			 D       G              D
The next time that we meet, I will bow at her feet. 
G			   D	           CC/G	               A	
You’ll say ‘Wasn’t life sweet when we were there, to take heaven down there!’

Comments