Williams John - Across The Stars Chords & Tabs

 

Across The Stars Chords & Tabs

Williams John Chords & Tabs

Version: 1 Type: Tab 0 ratings
1 star 2 stars 3 stars 4 stars 5 stars
comments

Across The Stars Tab

   
Standard Tuning - E A D G B E

                          Across The Stars (Love Theme)
                              STAR WARS EPISODE II

|--1----------------------------------|---3---1---0---1----------------------|
|--3--------------------------3-------|---3-----------3-----------3----------|
|--2-----2--------2--------2--------2-|---3---0---3---2-------2-----------2--|
|--0--3-----0--3-----0--3-----0--3----|---0-----------0---3-------0---3------|
|-------------------------------------|--------------------------------------|
|-------------------------------------|--------------------------------------|


|---1---0-------0----------------------|--------------------------------------|
|-----------3---1-------1---1-------1--|---3-------3-----------3---1-------1--|
|---2-------2---2---2-----------2------|---3---3-----------3------------------|
|---0---3-------2-----------2----------|---3-----------3-----------2---2------|
|--------------------------------------|---------------------------0----------|
|--------------------------------------|--------------------------------------|

[ Tab from: http://www.guitartabs.cc/tabs/w/williams_john/across_the_stars_tab.html ]
|---------------------------------|--------------------------------------|
|-----------------------------1---|-----------------------1--------------|
|----2---------2---------2--------|---2-------2-------2-------2-------2--|
|----3--------------3-------------|---2-----------3-----------2----------|
|----3----3-----------------------|---4---3-------------------4---4------|
|----1----------------------------|---1-----------------------0----------|


|---1-------1--------------------------|-------0---1---3-----------0----------|
|---3-----------------------3----------|---3-----------3-------3-----------3--|
|---2---2---------------2-----------2--|---3---0---3---3---3-------0---3------|
|---0-----------0---3-------3---3------|---5-----------5----------------------|
|---------------------------5----------|---1----------------------------------|
|--------------------------------------|--------------------------------------|


|--5--------3----------------------------------|
|--------3--4----------------------------------|
|-----------3-----0-----0--3-----0--3-----0--3-|
|--3--3--------------1--------1--------1-------|
|--5--------0--1-------------------------------|
|----------------------------------------------|


Comments