Williams Brothers - I Cant Cry Hard Enough Chords & Tabs

 

I Cant Cry Hard Enough Chords & Tabs

Williams Brothers Chords & Tabs

Version: 1 Type: Tab 0 ratings
1 star 2 stars 3 stars 4 stars 5 stars
comments

I Cant Cry Hard Enough Tab

date: january/27/2003.
2nd guitar transcription of;
Song: I Can't cry hard enough. 
Artist: Williams Brothers.
transcribed by:Frost(saotome_22@yahoo.com).

Note:
this is my first tab, and i know that this tab is not ENTIRELY correct.
if you feel my tab isn't correct, be freely to ask questions and to say 
some comments about my tab. 

there's a part in the song in which the second guitar is being played. 

i'm gonna open my eyes...(after this phrase, you enter the first part of the tab) 
                                 and see for the first time......
                                                   | 
E|-------------------|------------------|-----------------|
A|----------------12-|---------11-------|-----------10----|
B|--------------9----|-------8----------|---------7-------|
G|-------------------|------------------|-----------------|
D|-------------------|------------------|-----------------|
E|-------------------|------------------|-----------------|



       i've let go of you like....
                            |                a child letting go...
                            |                          |
E|-------------------|------------------|-----------------|
A|----8--------------|---------6--------|----5----------3-|
B|--5----------------|-------3----------|--2----------0---|
G|-------------------|------------------|-----------------|
D|-------------------|------------------|-----------------|
E|-------------------|------------------|-----------------|


of his kite...              there it goes...
E|-------0-------0---|-----0-------1----|--5--5--5--5--5--|
A|---1-----1-3-----3-|-1-3---1---3---3--|-3--3--3--3--3-3-|
B|-----0-------0-----|---------0--------|-----------------|
G|-------------------|------------------|-----------------|
D|---3-------3-------|-3----------------|-----------------|
E|-------------------|------------------|-----------------|
[ Tab from: http://www.guitartabs.cc/tabs/w/williams_brothers/i_cant_cry_hard_enough_tab.html ]
  up in the sky...     there it goes...
E|--7--7--7--7--7----|--8--8--8--8--8---|--10-10-10-10-10-|
A|-4--4--4--4--4-4---|-5--5--5--5--5-5--|-6--6--6--6--6-10|
B|-------------------|------------------|-----------------|
G|-------------------|------------------|-----------------|
D|-------------------|------------------|-----------------|
E|-------------------|------------------|-----------------|

 with no reason why....                     hard enough...
                 |                           |
E|--------------------0-----0-------0-----0------0-----0--|
A|----------------1-----1-----1-------1-----1------1-----1|
B|------------------0-----0-------0-----0-------0-----0---|
G|--------------------------------------------------------|
D|----------------3-------------2-------------0-----------|
E|--------------------------------------------------------|

         no i cant...                        for you to...
         |                                    |
E|------0-----0------|-----1-----1------|-----0------3----|
A|--------1-----1----|-------1-----1----|-------1------0--|
B|----0-----0--------|---2-----2--------|---0------0------|
G|-------------------|------------------|-----------------|
D|-------------------|------------------|-3---------------|
E|--3----------------|-1----------------|--------3--------|
                   
    hear me now...

E|-----0--------0----|-------3-----------|----------------|
A|-1-----1--------1--|------1------------|----------------|
B|---0--------0------|-----0-------------|----------------|
G|--------2h3--------|----2--------------|----------------|
D|-3-----------------|---3---------------|----------------|
E|-------------------|-------------------|----------------|

at the end part of the second stanza, you just need to loop back again from
the start.(it's starts with, now that your gone, then you will start the loop).
try to hear the rythm of the 2nd guitar in the song, so that you can play it 
easily.

i just want to greet my classmates in "B.E.A.", mga tol si jun to.  

well that's it, good luck!
Comments