William Brothers - Cant Cry Hard Enough Chords & Tabs

 

Cant Cry Hard Enough Chords & Tabs

William Brothers Chords & Tabs

Version: 1 Type: Tab 0 ratings
1 star 2 stars 3 stars 4 stars 5 stars
comments

Cant Cry Hard Enough Tab

   
CAN’T CRY HARD ENOUGH 
William Brothers

johnsantos_17@yahoo.com

Standard Tuning:	(EADGBE)

Chords:

  C   C/4  Em/C  Am  G6   F   G   Bb
E-0----0----0-----0---0---1---3---1-----
B-1----1----1-----1---0---1---3---3-----
G-0----0----0-----2---0---1---0---3-----
D-2----3----2-----2---0---3---0---3-----
A-3----3----2-----0---2---3---2---1-----
E---------------------3---1---3---------


INTRO:

E-----------------------0--------0-------
B------1--------------1---1------1-------
G------0---------0---------------0-------
D----------2--3------------------2-------
A--3-----------------------------3-------
E----------------------------------------

VERSE:	CEm/CAmG6 

I’m gonna live my life		like everything’s the last	without a simple 
[ Tab from: http://www.guitartabs.cc/tabs/w/william_brothers/cant_cry_hard_enough_tab.html ]
E---------0----------0------------0-----------0------------0-----------0-----------0-----------0--
B------------1-----------------------1------------------------1------------------------0----------
G------0----------0-----------0------------0-----------2-----------2------------0----------0------
D-------------------------------------------------------------------------------------------------
A---3----------3---------3-2-----------2---------2-0-----------0---------0------------------------
E-------------------------------------------------------------------------------3----------3------

FGCC/4 

Goodbye	It all goes by so fast
E---------1----------1-----------3---------3---
B-----------1----------------------3-----------
G------------------------------0---------0-----
D-----3-----------3----------------------------
A----------------------------------------------
E--1-----------1---------0-3---------3---------

E------------0-------------0---------0---------
B------------1-------------1---------1---------
G--------0------------0-------0-----0----------
D----------------2-3----------------2----------
A-0--3------------------------------3----------
E----------------------------------------------

CHORUS:	(Strumming)
AmG
AmBb
CAmG6
FGCC/4 – C

Repeat Verse & Chorus:

=====¤w&_17=====
Comments