Will Young - Light My Fire Chords & Tabs

 

Light My Fire Chords & Tabs

Will Young Chords & Tabs

Version: 1 Type: Tab 0 ratings
1 star 2 stars 3 stars 4 stars 5 stars
comments

Light My Fire Tab

   
LIGHT MY FIRE
Will Young

tabbed by Edoardo Sabadelli [www.sabadelli.it/edoardo]
21.20 09/06/2003

I like this version because sounds great even if you are only you and your
acoustic guitar.
If you have a friend with some percussions it's better!

The original tuning is 1/2 step down.
Listen to the song for the strumming...

Song structure:

intro + bridge

verse
You know that it would be untrue...

chorus
Come on baby, light my fire...

verse
The time to hesitate is through...

chorus
Come on baby, light my fire...

Solo (under verse)

chorus
Come on baby, light my fire...

verse
The time to hesitate is through...

chorus
Come on baby, light my fire...

ending

[intro]

    '   '   '   '     '   '   '   '     '   '   '   '     '   '   '   '     
        C7+       A7+                       C7+      (A)  A7+   F#m A
e |-----7---7-7---4-|-----------------|-----7---7-7-----|-4-4---2---------|
B |-----5---5-5---2-|-----------------|-----5---5-5--(2)|-2-2---2---2-----|
G |-----5---5-5---2-|---2-4h224h224h22|-----5---5-5--(2)|-2-2---2---2-----|
D |-7---5---5-5---2-|-----------------|-7---5---5-5--(2)|-2-2---4---2-----|
A |-----------------|-----------------|-----------------|-----------------|
E |-----------------|-----------------|-----------------|-----------------|

[bridge]

    '   '   '   '     '   '   '   '    
    G       F#m       D       Bb       
e |-3-3-----2-2-----|-2-2-----2-2-----|
B |-3-3-----2-2-----|-3-3-----3-3-----|
G |-4-4-----2-2-----|-2-2-----4-4-----|
D |-5-5-----4-4-----|-0-0-----4-4-----|
A |-----------------|-----------------|
E |-----------------|-----------------|
[ Tab from: http://www.guitartabs.cc/tabs/w/will_young/light_my_fire_tab.html ]
    '   '   '   '     '   '   '   '     '   '   '   '
    G       F#m       E7                                 
e |-7-7-----5-5-----|-0---------------|-----------------|
B |-3-3-----2-2-----|-0---------------|--6h7~~~---------|
G |-4-4-----2-2-----|-1---------4--6/7|-----------------|
D |-5-5-----4-4-----|-0-2--/6---------|-----------------|
A |-----------------|-2---------------|-----------------|
E |-----------------|-0---------------|-----------------|

[verse]

    '   '   '   '     '   '   '   '    
    C         C7+ A         A7+ F#m7     
e |(8)---(8)8-7--(0)|-------4---2-----|
B |-5-----5-5-5---2-|-------2---2-----|
G |-5-----5-5-5---2-|-------2---2-----| repeat 4 times
D |-5-----5-5-5---2-|-------2---2-----|
A |-----------------|-----------------|
E |-----------------|-----------------|

[chorus]

    '   '   '   '     '   '   '   '    
    G       F#m       D       Bb       
e |-3-3-----2-2-----|-2-2-----2-2-----|
B |-3-3-----2-2-----|-3-3-----3-3-----|
G |-4-4-----2-2-----|-2-2-----4-4-----| repeat 2 times
D |-5-5-----4-4-----|-0-0-----4-4-----|
A |-----------------|-----------------|
E |-----------------|-----------------|

    '   '   '   '     '   '   '   '     '   '   '   '
    G       F#m       E7                        Bb           
e |-7-7-----5-5-----|-0---------------|--------(2-2-2-2)|
B |-3-3-----2-2-----|-0---------------|--6h7~~~(3-3-3-3)|
G |-4-4-----2-2-----|-1---------4--6/7|--------(4-4-4-4)|
D |-5-5-----4-4-----|-0-2--/6---------|--------(4-4-4-4)|
A |-----------------|-2---------------|-----------------|
E |-----------------|-0---------------|-----------------|

[ending]

    '   '   '   '     '   '   '   '    
    G       F#m       D       Bb       
e |-3-3-----2-2-----|-2-2-----2-2-----|
B |-3-3-----2-2-----|-3-3-----3-3-----|
G |-4-4-----2-2-----|-2-2-----4-4-----| repeat ad libitum
D |-5-5-----4-4-----|-0-0-----4-4-----| with rhythm variations
A |-----------------|-----------------|
E |-----------------|-----------------|

...enjoy!
--
Edoardo
Comments