Will Smith - Nod Ya Head Chords & Tabs

 

Nod Ya Head Chords & Tabs

Will Smith Chords & Tabs

Version: 1 Type: Tab 0 ratings
1 star 2 stars 3 stars 4 stars 5 stars
comments

Nod Ya Head Tab

Will Smith
"Nod Ya Head"
Tabbed by Mike N.

Opening Riff
1)----------------------------------|
2)----------------------------------|
3)----------------------------------|
4)-5--2---7-5-7xx77xxx77x7----------|
5)-5--2---7-5-7xx77xxx77x7----------|
6)-3--0---5-3-5xx55xxx55x5----------|
im not sure about the mutings, it might be different listen to the
song to figure it out
[ Tab from: http://www.guitartabs.cc/tabs/w/will_smith/nod_ya_head_tab.html ]
Riff 2               Riff 3
1)-----------------*--------------------|
2)-----------------*--------------------|
3)-6-5-4-3---2-2-3-*-10-9-8-7---6-7-7---|
4)-6-5-4-3---2-2-3-*-10-9-8-7---6-7-7---|
5)-4-3-2-1---0-0-1-*--8-7-6-5---4-5-5---|
6)-----------------*--------------------|

this song is pretty easy to play it took me about 15 minutes to pick it up
questions comments e-mail me at metallicamike333@yahoo.com
Comments