Will Smith - Gotta Go Home Chords & Tabs

 

Gotta Go Home Chords & Tabs

Will Smith Chords & Tabs

Version: 1 Type: Bass Tab 0 ratings
1 star 2 stars 3 stars 4 stars 5 stars
comments

Gotta Go Home Bass Tab

By: Breanne Sisson
Drop D Tuning 
This bass line is really fun to play. Enjoy!

Intro (when drum beat starts then play until the verse starts)
G|-----3-1---------------------------------|
D|-1-1-----4-----4-3-1-------------6---6---|
A|-----------2-2-----------6-4-2-4---4---4-|
D|---------------------6-6-----------------|

Verse 1 (play over till chorus)
G|------------------------------------|
D|-------------4-1-------------6------|
A|---------2-2---------4-6-4-4---4-4--|
D|-1-1-3-4---------6-6----------------|
[ Tab from: http://www.guitartabs.cc/tabs/w/will_smith/gotta_go_home_btab.html ]
Chorus
G|-----3-1---------------------------------|
D|-1-1-----4-----4-3-1-------------6---6---|
A|-----------2-2-----------6-4-2-4---4---4-|
D|---------------------6-6-----------------|

Lead in from Chrous to Verse 2
"..every time she goes..."
G|-----------|
D|-----------|
A|-------1-2-|
D|-1-3-4-----|

Verse 2 (play over till chorus)
G|------------------------------------|
D|-------------4-1-------------6------|
A|---------2-2---------4-6-4-4---4-4--|
D|-1-1-3-4---------6-6----------------|

Then it goes back to the chorus
G|-----3-1---------------------------------|
D|-1-1-----4-----4-3-1-------------6---6---|
A|-----------2-2-----------6-4-2-4---4---4-|
D|---------------------6-6-----------------|
Comments