Will Smith - Black Suits Comin Chords & Tabs

 

Black Suits Comin Chords & Tabs

Will Smith Chords & Tabs

Version: 1 Type: Bass Tab 0 ratings
1 star 2 stars 3 stars 4 stars 5 stars
comments

Black Suits Comin Bass Tab

Artist: Will Smith
Song: Black Suits Comin' (Nod Ya Head)
Album: Born to Reign (And "M.I.B. 2" Motion Picture)
Tabbed by: Peter Reilly
Instrument: Bass

   Intro (after quiet guiitar bit)
G:|------------|-------------------|
D:|-5--3-------|-------------------|
A:|-----543-35-|-------------------|
E:|--------6---|-3333333333333333--|

   Verse + Chorus
G:|------------------|---------------|----------------|-----------------|
D:|------------------|---------------|-4-31-----------|-3h4-31--1-(1h)3-|
A:|-3h4-31-----------|-4-31------1-3-|-----3-123-3333-|-------3---------|
E:|-------3-123-3333-|-----3-123-----|----------------|-----------------|
[ Tab from: http://www.guitartabs.cc/tabs/w/will_smith/black_suits_comin_btab.html ]
G:|------------------|---------------|------------------|----------------|
D:|------------------|---------------|-3h4-31-----------|----------------|
A:|-3h4-31-----------|-4-31------1-3-|-------3-123-3333-|-3--5--6--8-*10-|
E:|-------3-123-3333-|-----3-123-----|------------------|----------------|
								*only play at end of song
   M8
G:|--------------|------------|---------------------|
D:|--------------|------------|--------------10-/12-|
A:|-6-/8-/10-/13-|-6-/8-------|-6-/8-/10-/13--------|
E:|--------------|------------|---------------------|

Thats it.  A really cool song with an enjoyable bass line.  The Edit and Album version are no
different except the Album vers is slightly longer.
Comments