Will Hoge - Its A Shame Chords & Tabs

 

Its A Shame Chords & Tabs

Will Hoge Chords & Tabs

Version: 1 Type: Tab 0 ratings
1 star 2 stars 3 stars 4 stars 5 stars
comments

Its A Shame Tab

   
http://www.willhoge.com/

-------------------------------------------------------------------------------
			     IT'S A SHAME - Will Hoge
-------------------------------------------------------------------------------
Tabbed by: Kyle Krafka

Tuning: Standard, Capo Second Fret

All tabs and chords relative to capo


You may want to try replacing the D chords with [x00200]



Intro:

e|-------------------------------------|
B|-------------------------------------|
G|-------------------------------------|
D|-------------------------------------|
A|--4---4---4---4---4h5---5---5---5----|
E|----5---5---5---5-----5---5---5---5--|


Riff 1
e|------------0-----|
B|------------------|
G|----------2-------|
D|------------------|
A|------------------|
E|------------------|


Riff 2:
e|----7-5------7-5------7-5--|
B|--5--------5--------3------|
G|---------------------------|
D|---------------------------|
A|---------------------------|
E|---------------------------|


Riff 2 (Easy Alternative - Octive Lower):
e|---------------------------|
B|----0--------0--------0----|
G|------2--------2--------2--|
D|--2--------2--------0------|
A|---------------------------|
E|---------------------------|


VERSE 1

[Intro]
How would this be if I was alone tonight

                                             [Riff 1]
Maybe then my love everything would turn out right

[ Tab from: http://www.guitartabs.cc/tabs/w/will_hoge/its_a_shame_tab.html ]
I wish that this were easy but you know that it never is


It seems like hearts get broken during things like this


           A       D            A                   D
And if you see her walking down along these streets

A        D                     A                    D
Her body softly swaying to her heart's broken beats

A               D                A             D
And if you see her tell her that I'm doing fine

A                   D                             A             D
And tell her if she feels like talking she should call me sometime


F#m         D
And I can't fight it anymore

F#m                     B7
I can't stop it once it starts

[Riff 2 repeats]

            A           D
Well it's a shame babe

            A           D
Well it's a shame babe

            A           D
Well it's a shame babe

                      A          D
The way we've torn it all apart

[Intro and Riff 1]

And if you see her let her know I wish her well
And if things will get much better tell her only time will tell
'Cause if she's lonely well I'm alright
'Cause you know
When it falls down I'll be there to pick it up one more time
Comments