Will Haven - The Regulaters Chords & Tabs

 

The Regulaters Chords & Tabs

Will Haven Chords & Tabs

Version: 1 Type: Bass Tab 0 ratings
1 star 2 stars 3 stars 4 stars 5 stars
comments

The Regulaters Bass Tab

Will Haven - The Regulaters
Submitted By: Misery
EMail: kaiowas@swirve.com


Album:Never Give In - A Tribute To The Bad Brains
                                                                                        7x
G----------------------------------------------------------------------------------------||
D------------------------------------------5---------------------------------------------||
A------------------------5--5--5--5--5--5-----4--4--4--4--4--4-----0-----0--0--0--0--0--0||
D---5--5--5--5--5--5--5-----------------------------------------2------------------------||
                                                                        
[ Tab from: http://www.guitartabs.cc/tabs/w/will_haven/the_regulaters_btab.html ]
                                                                                          4x
G----------------------------------------------------------------------------------------||
D----------------------------------------------------------------------------------------||
A------------------------------------------3--2--2--2--2--2--2--2--2--2--2--2--2--2--2--2||
D---2--2--2--2--2--2--2--3--3--3--3--3--3------------------------------------------------||
                                                                        
                                                                        

                                                                        
G---------------------------------------------||
D---------------------------------------------||
A---3--2-----3--2-----3--2-----3--2-----3--2--||
D---------------------------------------------||
                                                                        

                                                                        
G-----------------------------------------------------------------------
D-----------------------------------------------------------------------
A---5--5--5--5--5--5--5--5--5--5--5--5--0--5--5--5--5--5--5--5--5--5----
D-----------------------------------------------------------------------
                                                                        

                                                                        
G-------------------||--------------------------------------------------
D------------------*||--------------------------------------------------
A---5--5--5--5--0--*||--------------------------------------------------
D-------------------||--0--0-0-0-0--0--0-0-0-0--0--0-0-0-0--0--0-0-0-0--
Comments