Will Haven - Dolph Lundgren Chords & Tabs

 

Dolph Lundgren Chords & Tabs

Will Haven Chords & Tabs

Version: 1 Type: Tab 0 ratings
1 star 2 stars 3 stars 4 stars 5 stars
comments

Dolph Lundgren Tab

-------------------------------------------------------------------------------
			 Dolph Lundgren  Will Haven
-------------------------------------------------------------------------------
Tabbed by: Sick Steve


Tuning: Drop B

Riff 1

E |-----------------------------------------------------------------------------|
B |-----------------------------------------------------------------------------|
G |------------------6----------------------------------------------------------|
D |------------------0----------------------------------------------------------|
A |------------------4----------------------------------------------------------|
E |01014--0101------------------------------------------------------------------|

Riff 2

E |-----------------------------------------------------------------------------|
B |-----------------------------------------------------------------------------|
G |------------------------------------------6----------------------------------|
D |------------------------------------------0----------------------------------|
A |------------------------------------------4----------------------------------|
E |00--0-00--0-00--001^--00--0-00--0-00--00-------------------------------------|

Riff 3

E |-----------------------------------------------------------------------------|
B |-----------------------------------------------------------------------------|
G |66-66-66---------------------------------------------------------------------|
D |00-00-00---------------------------------------------------------------------|
A |44-44-44---------------------------------------------------------------------|
E |-------------010--\----------------------------------------------------------|

Riff 4
[ Tab from: http://www.guitartabs.cc/tabs/w/will_haven/dolph_lundgren_tab.html ]
E |-----------------------------------------------------------------------------|
B |-----------------------------------------------------------------------------|
G |4---44-----------------------------------------------------------------------|
D |3---33-----------------------------------------------------------------------|
A |3---33-----------------------------------------------------------------------|
E |3---33---0000000000----------------------------------------------------------|
	             xxxxxxxxxx

Riff 5

E |-----------------------------------------------------------------------------|
B |-----------------------------------------------------------------------------|
G |-----------------------------------------------------------------------------|
D |---0-----0-------------------------------------------------------------------|
A |-----------------------------------------------------------------------------|
E |1-----3-----/6---------------------------------------------------------------|

Riff 6

E |-----------------------------------------------------------------------------|
B |------3----------------------------------------------------------------------|
G |------0----------------------------------------------------------------------|
D |---0-------------------------------------------------------------------------|
A |-----------------------------------------------------------------------------|
E |1---------0-0----------------------------------------------------------------|

Riff 7

E |-----------------------------------------------------------------------------|
B |-----------------------------------------------------------------------------|
G |-----------------------------------------------------------------------------|
D |-----------------------------------------------------------------------------|
A |-----------------------------------------------------------------------------|
E |0---6---5---3231------------------------------------------------------------|
Comments