Wildhearts - Vanilla Radio Chords & Tabs

 

Vanilla Radio Chords & Tabs

Wildhearts Chords & Tabs

Version: 1 Type: Tab 0 ratings
1 star 2 stars 3 stars 4 stars 5 stars
comments

Vanilla Radio Tab

   
Tabbed by: Dale Weekes

Artist: The Wildhearts
Title: Vanilla Radio
Date: 10/10/02
Tuning: I used standard tuning to work this out and it sounds fine, but  have a suspicion it may 
        be in half-step dropped tuning (Eb, Ab, Db, Gb, Bb, Eb)

Ok so I got sick and tired of looking on this site every day for this song so I decide to roll up
my sleeves and work it out myself.
First of all this is a great song, all power chords but i decent tune nonetheless.

Anyway enough talking here's the tab...

Key: p= palm mute
     r= rest
     x= scratch
     \= slide

Intro:
e:--------------------------------------|
B:--------------------------------------|
G:---11-11-11-xx-10-10-xx-9-8--6-8-8----|
D:---11-11-11-xx-10-10-xx-9-8--6-8-8----|
A:---9--9--9--xx-8--8--xx-7-6--4-6-6----|
E:--------------------------------------| x2

e:----------------------------|
B:----------------------------|
G:---11-11-11-xx-10-10-xx-9--r|
D:---11-11-11-xx-10-10-xx-9--r|
A:---9--9--9--xx-8--8--xx-7--r|
E:----------------------------|

Pre-Verse:
e:----------------------------|      e:--------------|
B:----------------------------|      B:--------------|
G:---8-8-8-9-8-8-8-8-8--------|      G:---8-8b9-8----|
D:---8-8-8-9-8-8-8-8-8--------|      D:--------------|
A:---6-6-6-7-6-6-6-6-6--------|      A:--------------|
E:----------------------------| x8   E:--------------| x8 With wah

[ Tab from: http://www.guitartabs.cc/tabs/w/wildhearts/vanilla_radio_tab.html ]
e:----------------------------|
B:----------------------------|
G:---11-11-11-xx-10-10-xx-9--r|
D:---11-11-11-xx-10-10-xx-9--r|
A:---9--9--9--xx-8--8--xx-7--r|
E:----------------------------|

Verse:
e:--------------------------|     
B:----p-p-----p---p---p-p---|
G:--8-8-8-6-8-8-8-8-8-8-8-6-|
D:--8-8-8-6-8-8-8-8-8-8-8-6-|
A:--6-6-6-4-6-6-6-6-6-6-6-4-|
E:--------------------------| x3

e:------------------|
B:------------------|
G:------------------|
D:--6-6-6-4-4-3-3-3-|
A:--6-6-6-4-4-3-3-3-|
E:--4-4-4-2-2-1-1-1-|

repeat first part of Pre-Verse x2
repeat Verse
repeat first peart of Pre-Verse

Pre-Chorus: (Vanilla radioooo...wOw)
(play each chord more times than shown)

e:--------------------------------------|
B:--------------------------------------|
G:--6-6-6--4-4-4------------------------|
D:--6-6-6--4-4-4--4-4-4--9-9-7-7---4-3--|
A:--4-4-4--2-2-2--4-4-4--9-9-7-7---4-3--|
E:----------------2-2-2--7-7-5-5---2-1--| (I wanna radio...)

Chorus:
(sounds a lot like...my little disgrace...my little disgrace)
(again, play each chord more time than shown, I just cant be bothered to write them all out)
e:-------------------------------|
B:-------------------------------|
G:--8-8-8---------5-5-5-6-6-7-7--|
D:--8-8-8--6-6-6--5-5-5-6-6-7-7--|
A:--6-6-6--6-6-6--3-3-3-4-4-5-5--|
E:---------4-4-4-----------------|

Repeat Intro, Pre-Verse, Verse, Pre-Chorus and Chorus x2

Outro:
e:------------------------------|
B:------------------------------|
G:---11-11-11-xx-10-10-xx-9-8\--|
D:---11-11-11-xx-10-10-xx-9-8\--|
A:---9--9--9--xx-8--8--xx-7-6\--|
E:------------------------------|

And that's it my friends, Vanilla Radio.
Any questions or comments send to guitar_wizard_uk@hotmail.com i'd love to hear them.
Have fun.

Dale Weekes










Comments