Wildhearts - Sick Of Drugs Chords & Tabs

 

Sick Of Drugs Chords & Tabs

Wildhearts Chords & Tabs

Version: 1 Type: Tab 0 ratings
1 star 2 stars 3 stars 4 stars 5 stars
comments

Sick Of Drugs Tab

The Wildhearts
Song:Sick of drugs
Tab By Azuri

Tunings:1/2 a step down

Riff 1
E---------------------
B---------10----------
G-----9-------9-------
D---7---7---7---7H9---
A---------------------
E---------------------

Riff 2
E---------------------
B---------------------
G--2-----------------7
D--2--------2--------7
A--0--------2--------5
E-----------0---------

Riff 3
E---------------------------------------------------------
B---------------------------------------8888888-----------
G--99999999-------------------99999999-99999999-77777777--
D--77777777-99999999-99999999-77777777-77777777-77777777--
A--00000000-77777777-77777777-00000000-00000000-55555555--
E---------------------------------------------------------

Riff 4
E------------------------------------
B------------------------------------
G--2---------------------------------
D--2-----------------2---------------
A--0--------4-5-4----2---------------
E--------------------0--------4-5-4--
[ Tab from: http://www.guitartabs.cc/tabs/w/wildhearts/sick_of_drugs_tab.html ]
Riff 5
E------------------------------------
B------------------------------------
G--2-----------------6---------------
D--2-----------------6---------------
A--0--------4-5-4----4--------8-9-8--
E------------------------------------

Riff 6
E----------------------------------------------------------------------
B----------------------------------------------------------------------
G----------------------------------------------------------------------
D--7----6-7----6-7----6-7----9-----------------------------------------
A--5----4-5----4-5----4-5----7-7-8-9----7-9----7-9----7----7-9----9-9--
E------------------------------5-6-7----5-7----5-7----5----5-7----7-7--

E-----0--------
B-----0--------
G-----------4--
D--7--------2--
A--7--------2--
E--5--------0--

Riff 7                            (1ST time)
E--------------------------------(----)
B--------------------------------(----)
G--7----2---------2----7----2----(6)--)
D--7----2----2----2----7----2----(6)--)
A--5----0----2----0----5----0----(4)--)
E------------0-------------------(----)
2ND time
E-----
B-----
G--4--
D--2--
A--2--
E--0--

RIFF 8
Sick of Drugs are we- Stay Tuned for the rest
Any comments would be greatly appriciated.contact me on 
deano_bow69@yahoo.co.uk

Rock on
Comments