Wild Cherry - Play That Funky Music White Boy Chords & Tabs

 

Play That Funky Music White Boy Chords & Tabs

Wild Cherry Chords & Tabs

Version: 1 Type: Tab 0 ratings
1 star 2 stars 3 stars 4 stars 5 stars
comments

Play That Funky Music White Boy Tab

"Play that Funky Music White Boy"
	by: Wild Cherry

This tab is for the rythym guitar of the song.

Guitar plays a funky little rift:

e|---7-7--7--7--9-8--7-|
b|---7-7--7--7--9-8--7-|
g|---7-7--7--7--9-8--7-|
d|---6-6--6--6--8-7--6-|
a|---7-7--7--7--9-8--7-|
e|---------------------|

You can vary the rythym, and add in stuff, like slides and stuff such as...

e|---7-7--7--7-7/9-8--7-|
b|---7-7--7--7-7/9-8--7-|
g|---7-7--7--7-7/9-8--7-|
d|---6-6--6--6-6/8-7--6-|
a|---7-7--7--7-7/9-8--7-|
e|----------------------|

	AND
[ Tab from: http://www.guitartabs.cc/tabs/w/wild_cherry/play_that_funky_music_white_boy_tab.html ]
e|---7-7--6--7--9-8--7-|
b|---7-7--6--7--9-8--7-|
g|---7-7--6--7--9-8--7-|
d|---6-6--5--6--8-7--6-|
a|---7-7--6--7--9-8--7-|
e|---------------------|

When "Yeah they were dancing, and singing..." comes, all you play is

e|---7-7-7-7-
b|---7-7-7-7-
g|---7-7-7-7- etc.  Play that chord about 15 times, then move the whole progression
d|---6-6-6-6-        up to the 10th fret.
a|---7-7-7-7-
e|-----------

e|---10-10--
b|---10-10--
g|---10-10-- etc.  After this is played, there are 2 other chords played, but it's hard
d|---9 -9 --	    to hear them...try your best to figure them out.
a|---10-10--
e|----------

Any questions, send to Tom Engelhardt at engelwj@erols.com

	"If you can walk, you can dance.
		"If you can laugh, you can sing."
Comments