Wilco - Lonely One Chords & Tabs

 

Lonely One Chords & Tabs

Wilco Chords & Tabs

Version: 2 Type: Tab 0 ratings
1 star 2 stars 3 stars 4 stars 5 stars
comments

Lonely One Tab

   
-------------------------------------------------------------------------------
			     The Lonely 1 - Wilco
-------------------------------------------------------------------------------

Tabbed by: The Phwbt
Tuning: Standard




Verse:  This should be as complicated as the song gets.  Sometimes
some of the notes are omitted.  Play it how you like it.

e|---8--7-------|----------------|--------5----|---------5-----|
B|---8--8-------|--10--8---10----|--6-5-----5--|--8--5----5----|
G|-5------------|---9--9------9--|--7-5--------|--9--5---------|
D|--------------|----------------|-------------|---------------|
A|--------------|----------------|-------------|---------------|
E|--------------|----------------|-------------|---------------|

Chorus: Strum    C, Fm7


C                            Fmaj 7
And you, you were the lonely one


Guitar 2

Verse:  I know there is a second guitar throughout, but I can't hear
it well enough to figure out any more than the very end.  
[ Tab from: http://www.guitartabs.cc/tabs/w/wilco/lonely_one_tab_ver_2.html ]
e|--------------|----------------|--------------|--------3-----|
B|--------------|----------------|--------------|-------5-5----|
G|--------------|----------------|--------------|------5-------|
D|--------------|----------------|--------------|--------------|
A|--------------|----------------|--------------|--------------|
E|--------------|----------------|--------------|--------------|




Chorus(and the verse near the end of the song):
       
e|--8--------|
B|---8-------|
G|----9------|    (Repeat a bunch of times while guitar 1 plays c, Fm7)
D|-----------|
A|-----------|
E|-----------|







If you just want the chords you can play 
Verse:  C, C, F, G
Chorus: C, Fm7


Verse:
C
After the show you walked right past
F                G
Arms reached out for your autograph



Chorus:
C                            Fmaj 7
And you, you were the lonely one



Chords just in case you don't know them

C    x32010
G    320003
F    133211
Fm7  103210
Comments