Wilco - Im Always In Love Chords & Tabs

 

Im Always In Love Chords & Tabs

Wilco Chords & Tabs

Version: 1 Type: Chords 0 ratings
1 star 2 stars 3 stars 4 stars 5 stars
comments

Im Always In Love Chords

   
-------------------------------------------------------------------------------
			     Wilco - I'm Always In Love
-------------------------------------------------------------------------------

Tabbed by: Tyler Estes
Email: ohdarn323@hotmail.com

Tuning: Standard

The synth plays this between lines

e|--------------------|
B|-0/12\2-4-2-0-------|
G|--------------------|
D|--------------------|
A|--------------------|
E|--------------------|

Intro: B E

[B]Why, I wonder, is my [E]heart full of holes? [B E]
[B]And the feeling goes but my [E]hair keeps growing [B E]
[B]Will I set the [E]sun
[D#m]On a [C#m]big-wheeled [F#]wagon?
[E]Oh I'm bragging
I'm always in love [B E B E]

[B]When I let go of your [E]throat-sweet throttle [B E]
[B]When I clean the lash of your [E]black-belt model [B E]
[B]Will I catch the [E]moon
[D#m]Like a [C#m]bird in a [E]cage?
[E]It's for you I swoon
I'm always in love [B E B E]

[F#]I don't get the connection    
[E]If this is only a test
[c#]I hope I do my best
[E]You know I won't forget

[F# E D# C# B E B E]

[B]When I fold the cold in my [E]jet-lag palm [B E]
[B]When I soak so long I [E]forget my mother [B E]
[B]Will I set the [E]sun
[D#m]On a [C#m]big-wheeled [F#]wagon?
[E]Oh I'm bragging
I'm always in love [B E]

[B]It's a drag I sang
[E]Oh I'm always in love [B E]
[B]I'm worried
[E]I'm always in love [B E B E]

[B]Oh I'm worried
[E]I'm worried
[B]I'm worried
[E]I'm always in love [B E]
[ Tab from: http://www.guitartabs.cc/tabs/w/wilco/im_always_in_love_crd.html ]
e|--------------------|
B|-2-4-2-4--2-4-5-4-2-|
G|--------------------|
D|--------------------|
A|--------------------|
E|--------------------|

e|--------------------|
B|-----0-2-4-0--------|
G|--------------------|
D|--------------------|
A|--------------------|
E|--------------------|


End on B.


-------------------------------------------------------------------------------

Here is how Tweedy played it solo acoustic.

This is what's played when "[D G]" is written:

e|-0-2-0-2-0-2-3-2-0--|
B|-3-3-3-3-3-3-3-3-3--|
G|-2-2-2-2-0-0-0-0-0--|
D|-0-0-0-0-0-0-0-0-0--|
A|---------0-0-0-0-0--|
E|---------3-3-3-3-3--|


Intro: [D G D G]

[D]Why, I wonder, is my [G]heart full of holes? [D G]
[D]And the feeling goes but my [G]hair keeps growing [D G]
[D]Will I set the [G]sun
[F#m]On a [Em]big-wheeled [a]wagon?
[G]Oh I'm bragging
I'm always in love [D G D G]

[D]When I let go of your [G]throat-sweet throttle [D G]
[D]When I clean the lash of your [G]black-belt model [D G]
[D]Will I catch the [G]moon
[F#m]Like a [Em]bird in a [a]cage?
[G]It's for you I swoon
I'm always in love [D G D G]

[A]I don't get the connection    
[G]If this is only a test
[E]I hope I do my best
[G]You know I won't forget

[a G F# E D G]

[D]When I fold the cold in my [G]jet-lag palm [D G]
[D]When I soak so long I [G]forget my mother [D G]
[D]Will I set the [G]sun
[F#m]On a [Em]big-wheeled [a]wagon?
[G]Oh I'm bragging
I'm always in love [D G]

[D]It's a drag I sang
[G]Oh I'm always in love [D G]
[D]I'm worried
[E?]I'm always in love [D G D G]

[D]Oh I'm worried
[G]I'm worried
[D]I'm worried
[G]I'm always in love [D G]

End on D
Comments