Wilco - Handshake Drugs Chords & Tabs

 

Handshake Drugs Chords & Tabs

Wilco Chords & Tabs

Version: 1 Type: Bass Tab 0 ratings
1 star 2 stars 3 stars 4 stars 5 stars
comments

Handshake Drugs Bass Tab

Song: Handshake Drugs				       Tabbed by: Zack Silver
Artist: Wilco						 ZSilver007@charter.net
Album: A Ghost is Born

Come in right after the 1 beat of the 5th measure

Intro
G |---------------------------------------||
D |4p2p0-2-0---0--0-4p2p0-2-0---0--------3||
A |----------2----------------2-----------||
E |---------------------------------3-----||
[ Tab from: http://www.guitartabs.cc/tabs/w/wilco/handshake_drugs_btab.html ]
Verse
  I was chewin’ gum, something to do… 
G |----------------------------------------------------------------||
D |-----7-7--------------7-7------------------3-2-3--2-3-2---------||
A |-5-5-----5-5--------5-----5-5---------2-5-----------------------||
E |-------------7-5--x-----------7-5-3-3---------------------------||
  
  Inside, Out of love…
G |----------------------------------------------------2-0---------||
D |----7-7-------------7-7-----------------2-0---0-2-5-------------||
A |5-5-----5-5-----5-5-----5-5-------0-2-5-----3-------------------||
E |------------7-5-------------7-5-3-------------------------------||
 
  Saxophones started…
G |----------------------------------------------------------------||
D |----7-7-------------7-7-------------------2-0--3-0-3-2----------||
A |5-5-----5-5-----x-5-----5-5---------0-2-5--------------3--------||
E |------------7-5-------------7-5-3-3-----------------------------||
 
                                   To the handshake drugs…
G |-------------------------------------------------------2-0------||
D |----7-7-------------7-7--------------------2-0---0-2-5----------||
A |5-5-----5-5-----5-5-----5-5---------0-2-5-----3-----------------||
E |------------7-5-------------7-5-3-3-----------------------------||
                                   To the handshake drugs…
G |----------------------------------------------------------------||
D |---------------------------------------2-0-------2-5-2----------||
A |5--------5---5-5-------5---------0-2-5-----3-2-3----------------||
E |---7-5-7---7-----7-5-7---7-5-3-3--------------------------------||
 
G |----------------------------------------------------------------||
D |---------------------------------------2-0-------2-5-2----------||
A |5--------5---5-5-------5---------0-2-5-----3-2-3----------------||
E |---7-5-7---7-----7-5-7---7-5-3-3--------------------------------||
 
Main Riff
G |----------------------------------------------------------------||
D |--------------------------------------------------2-0-3-2-3-2-3-2|
A |5-------5-----5-------5---------------------0-2-5---------------||
E |--7-5-7---7-5---7-5-7---7-5-3-1-0-1-3-1-0-3---------------------||
						 
                                     G |-----------------------||
 Repeat the Main Riff for the rest   D |--------2-0-3-2-3-2-3-2||
 Of the song throwing in variations  A |--0-2-5----------------||
 Of this part at the end of the riff E |3----------------------||
Comments