Wilco - At Least Thats What You Said Chords & Tabs

 

At Least Thats What You Said Chords & Tabs

Wilco Chords & Tabs

Version: 3 Type: Chords 0 ratings
1 star 2 stars 3 stars 4 stars 5 stars
comments

At Least Thats What You Said Chords

   
-------------------------------------------------------------------------------
                    AT LEAST THAT'S WHAT YOU SAID - Wilco
-------------------------------------------------------------------------------
Tabbed by: jvwald

Tuning: Drop D
Capo V

D 000232
Em 222000
G/B x20033
E7no3 070070

D   Em  x2
[ Tab from: http://www.guitartabs.cc/tabs/w/wilco/at_least_thats_what_you_said_crd_ver_3.html ]
       Em
When I sat down on the bed next to you 
               D
You started to cry
Em 
I said, maybe if I leave, you'll want me 
              D
To come back home
   Em 
Or maybe all you mean, is leave me alone
G/B                        D
At least that's what you said
Em                               D
You're irresistible when you get mad
Em                   D 
Isn't it sad, I'm immune
Em 
I thought it was cute for you to kiss 
   D
My purple black eye
               Em
Even though I caught it from you
                     D
I still think we're serious
G/B                       D
At least that's what you said

e|---------------------------2---------------------|
B|---------------------------3---------------------|
G|-0---0---0-0-----0-0---0-0-2-2-------------------|
D|-0h2-0h2-0-0h2p0-0-0h2-0-2-0-0-2-4~-4-2-4~-4-5-7-|
A|-2---2---2-2-----2-2---2-2-0-0-0-0--0-0-0--0-0-0-|
D|-2---2---2-2-----2-2---2-2-0-0-------------------|

E7no3 x32

e|----------------------------------------------------------------|
B|----7-----5-----------------------------------------------------|
G|------0-----0---0---7---6---4-------7-----6-------4---2---2p0---|
D|------------------------------5-------0-----0-----------------4-|
A|--7-----7-----7---5---5---5-----5/9-----9-----2/5---5---5-------|
D|----------------------------------------------------------------|

************************************

| /   slide up
| \   slide down
| h   hammer-on
| p   pull-off
| ~   vibrato
| +   harmonic
| x   Mute note
| b   Bend
| pb  Pre-bend
| br  Bend release
| pbr Pre-bend release
| brb Bend release bend

************************************
Comments