Wig Wam - In My Dreams Chords & Tabs

 

In My Dreams Chords & Tabs

Wig Wam Chords & Tabs

Version: 2 Type: Tab 0 ratings
1 star 2 stars 3 stars 4 stars 5 stars
comments

In My Dreams Tab

   
Wig Wam - IN MY DREAMS


Gtr I (E A D G B E) - 'Main'
Gtr II (E A D G B E) - 'Overdub'


 Intro
 4/4
  Gtr I
  <
  PM------------|           PM
  E E E E E E E E   H    Q  E E   +W           W
|-----------------|-------------|------------|------|
|-----------------|-------------|------------|------|
|-----------------|---------5-5-|-(5)--------|-4----|
|-9-9-9-9-9-9-9-9-|---------5-5-|-(5)--------|-5----|
|-7-7-7-7-7-7-7-7-|---------3-3-|-(3)--------|-5----|
|-----------------|-------------|------------|-3----|


             PM------------------------------|
  W          E E E E E E E E   E E E E E E E E
|----------|-----------------|-----------------||
|-3--------|-----------------|-----------------||
|-2--------|-----------------|-----------------||
|-4--------|-9-9-9-9-9-9-9-9-|-9-9-9-9-9-9-9-9-||
|-5--------|-7-7-7-7-7-7-7-7-|-7-7-7-7-7-7-7-7-||
|-2--------|-----------------|-----------------||


 Verse
  PM--------------------------------------------------------------|
  E E E  E  E  E  E  E   E E E  E  E  E  E  E   E E E  E  E  E  E  E
|----------------------|----------------------|----------------------|
|----------------------|----------------------|----------------------|
|----------------------|----------------------|----------------------|
|-9-9-9-10-10-10-10-10-|-7-7-7-10-10-10-10-10-|-9-9-9-10-10-10-10-10-|
|-7-7-7--7--7--7--7--7-|-7-7-7--7--7--7--7--7-|-7-7-7--7--7--7--7--7-|
|----------------------|----------------------|----------------------|


  PM-----------------------------------------------------|
  E E E  E  E  E  E  E   E E E E E E E E   E E E E E E E E
|----------------------|-----------------|-----------------|
|----------------------|-----------------|-----------------|
|----------------------|-----------------|-----------------|
|-7-7-7-10-10-10-10-10-|-5-5-5-5-5-5-5-5-|-7-7-7-7-7-7-7-7-|
|-7-7-7--7--7--7--7--7-|-3-3-3-3-3-3-3-3-|-5-5-5-5-5-5-5-5-|
|----------------------|-----------------|-----------------|


  PM------------------------------------
  E   E   E    E    E    E    E    E
|--------------------------------------|
|--------------------------------------|
|--------------------------------------|
|-9---9---9---10---10---10---10---10---|
|-7---7---7----7----7----7----7----7---|
|--------------------------------------|
|
| Gtr II
| S S S S S S  S S  S S  S S  S S  S S
|--------------------------------------|
|--------------------------------------|
|-9-9-9-9-9-9--9-9--9-9--9-9--9-9--9-9-|
|--------------------------------------|
|--------------------------------------|
|--------------------------------------|


 -----------------------------------------------------------------|
  E   E   E    E    E    E    E    E    E  E  E   E    E   E   E   E
|-------------------------------------|-------------------------------|
|-------------------------------------|-------------------------------|
|-------------------------------------|-------------------------------|
|-7---7---7---10---10---10---10---10--|-9--9--9--10---10--10--10--10--|
|-7---7---7----7----7----7----7----7--|-7--7--7---7----7---7---7---7--|
|-------------------------------------|-------------------------------|
|
| S S S S S S  S S  S S  S S  Q                     W
|-------------------------------------|-------------------------------|
|-------------------------------------|-------------------------------|
|-9-9-9-9-9-9--9-9--9-9--9-9-[9]------|-------------------------------|
|-------------------------------------|-------------------------------|
|-------------------------------------|-------------------------------|
|-------------------------------------|-------------------------------|


  PM-----------------------|
  E  E  E   E   E   E   E   E
|------------------------------|
|------------------------------|
|------------------------------|
|-7--7--7--10--10--10--10--10--|
|-7--7--7---7---7---7---7---7--|
|------------------------------|


     PM-|     PM|               PM-|     PM|
  E  E  E  E  S S E  E  E    E  E  E  E  S S E  E  E
|--------------------------|--------------------------|
|--------------------------|--------------------------|
|--------------------------|--------------------------|
|-2------------------------|-2------------------------|
|--------------------------|--------------------------|
|----0--0--3--0-0-5--3--0--|----0--0--3--0-0-5--3--0--|


  W          W           E   E   E   E   E   E   E   E
|----------|----------|---------------------------------|
|----------|----------|---------------------------------|
|-5--------|-7--------|---------------------------------|
|-5--------|-7--------|-(5)-(4)-(5)-(4)-(5)-(4)-(5)-(4)-|
|-3--------|-5--------|--3---2---3---2---3---2---3---2--|
|----------|----------|---------------------------------|


  q    Q.      S S   Q
|--------------------------||
|--------------------------||
|-5----5-------------------||
|-5----5-------------------||
|-3----3-------------------||
|--------------x-x-/17\----||


 Chorus
  E  Q    E  Q    E  E    +E   E  E  E  E  E  E  E
|-----------------------|---------------------------|
|-----------------------|---------------------------|
|---------4--4----5--5--|-(5)--5--5--5--5--5--5--5--|
|-2--2----4--4----5--5--|-(5)--5--5--5--5--5--5--5--|
|-2--2----2--2----3--3--|-(3)--3--3--3--3--3--3--3--|
|-0--0------------------|---------------------------|


  E E E E E E E E   E E E E E E E E   E Q  E Q  E E
|-----------------|-----------------|---------------|
|-----------------|-----------------|---------------|
|-----------------|-----------------|------4-4--5-5-|
|-5-5-5-5-5-5-5-5-|-4-4-4-4-4-4-4-4-|-2-2--4-4--5-5-|
|-5-5-5-5-5-5-5-5-|-5-5-5-5-5-5-5-5-|-2-2--2-2--3-3-|
|-3-3-3-3-3-3-3-3-|-2-2-2-2-2-2-2-2-|-0-0-----------|


  +E  E E E E E E E   E E E E E E E E   E E E E E E E E
|-------------------|-----------------|-----------------|
|-------------------|-----------------|-----------------|
|-(5)-5-5-5-5-5-5-5-|-7-7-7-7-7-7-7-7-|-8-8-8-8-8-8-8-8-|
|-(5)-5-5-5-5-5-5-5-|-7-7-7-7-7-7-7-7-|-9-9-9-9-9-9-9-9-|
|-(3)-3-3-3-3-3-3-3-|-5-5-5-5-5-5-5-5-|-6-6-6-6-6-6-6-6-|
|-------------------|-----------------|-----------------|


 2nd Verse
  PM----------------------------
  E  E  E   E   E   E   E   E
|------------------------------|
|------------------------------|
|------------------------------|
|-9--9--9--10--10--10--10--10--|
|-7--7--7---7---7---7---7---7--|
|------------------------------|


 --------------------------|        PM-|     PM|
  E  E  E   E   E   E   E   E    E  E  E  E  S S E  E  E
|------------------------------|--------------------------|
|------------------------------|--------------------------|
|------------------------------|--------------------------|
|-7--7--7--10--10--10--10--10--|-2------------------------|
|-7--7--7---7---7---7---7---7--|--------------------------|
|------------------------------|----0--0--3--0-0-5--3--0--|


     PM-|     PM|
  E  E  E  E  S S E  E  E    W                  H        E  S S   Q
|--------------------------|------------------|-------------------------|
|--------------------------|------------------|-------------------------|
|--------------------------|-5----------------|-7-----------------------|
|-2------------------------|-5----------------|-7-----------------------|
|--------------------------|-3----------------|-5-----------------------|
|----0--0--3--0-0-5--3--0--|------------------|-------------x-x-/17\----|


     PM-|     PM|
  E  E  E  E  S S E  E  E
|--------------------------|
|--------------------------|
|--------------------------|
|-2------------------------|
|--------------------------|
|----0--0--3--0-0-5--3--0--|
|
|          W
|--------------------------|
|--------------------------|
|--------------------------|
|--------------------------|
|--------------------------|
|--------------------------|

[ Tab from: http://www.guitartabs.cc/tabs/w/wig_wam/in_my_dreams_tab_ver_2.html ]
     PM-|      PM|
  E  E  E  E   S S E  E  E    Q     H.
|---------------------------|--------------------------|
|---------------------------|--------------------------|
|---------------------------|--------------------------|
|-2-------------------------|-5------------------------|
|---------------------------|-3------------------------|
|----0--0--3---0-0-5--3--0--|--------------------------|
|
|                             Gtr II
|                                PM-|      PM       PM
|            W                E  E  E   E  E  E  E  E
|---------------------------|--------------------------|
|---------------------------|-8---------7--------------|
|---------------------------|----5--7------5--9p=7--5--|
|---------------------------|--------------------------|
|---------------------------|--------------------------|
|---------------------------|--------------------------|


  Q     E  E  E  E  E  E    E  E  E  E  E  E  E  E
|-------------------------|-------------------------|
|-------------------------|-------------------------|
|-------------------------|-------------------------|
|----------9--9--7--7--5--|-5--4--5--4--5--4--5--4--|
|----------7--7--5--5--3--|-3--2--3--2--3--2--3--2--|
|-------------------------|-------------------------|
|
|    PM-|              PM      PM-|     PM       PM
| E  E  E  E  E  E  E  E    E  E  E  E  E  E  E  E
|-------------------------|-------------------------|
|-8--------7p=5-----------|-8--------7--------------|
|----5--7--------9p=7--5--|----5--7-----5--9p=7--5--|
|-------------------------|-------------------------|
|-------------------------|-------------------------|
|-------------------------|-------------------------|


   Q      Q.      S S   Q
|-----------------------------||
|-----------------------------||
|-----------------------------||
|--5------5-------------------||
|--3------3-------------------||
|-----------------x-x-/17\----||
|
|  Q      H             Q
|-----------------------------||
|-[8]----[5]------------------||
|-----------------------------||
|-----------------------------||
|-----------------------------||
|-----------------------------||


 Chorus
  E Q  E Q  E E   +E  E E E E E E E   E E E E E E E E
|---------------|-------------------|-----------------|
|---------------|-------------------|-----------------|
|------4-4--5-5-|-(5)-5-5-5-5-5-5-5-|-----------------|
|-2-2--4-4--5-5-|-(5)-5-5-5-5-5-5-5-|-5-5-5-5-5-5-5-5-|
|-2-2--2-2--3-3-|-(3)-3-3-3-3-3-3-3-|-5-5-5-5-5-5-5-5-|
|-0-0-----------|-------------------|-3-3-3-3-3-3-3-3-|


  E E E E E E E E   E Q  E Q  E E   +E  E E E E E E E
|-----------------|---------------|-------------------|
|-----------------|---------------|-------------------|
|-----------------|------4-4--5-5-|-(5)-5-5-5-5-5-5-5-|
|-4-4-4-4-4-4-4-4-|-2-2--4-4--5-5-|-(5)-5-5-5-5-5-5-5-|
|-5-5-5-5-5-5-5-5-|-2-2--2-2--3-3-|-(3)-3-3-3-3-3-3-3-|
|-2-2-2-2-2-2-2-2-|-0-0-----------|-------------------|


  E E E E E E E E   E E E E E E E E   E Q  E Q  E E
|-----------------|-----------------|---------------|
|-----------------|-----------------|---------------|
|-7-7-7-7-7-7-7-7-|-8-8-8-8-8-8-8-8-|------4-4--5-5-|
|-7-7-7-7-7-7-7-7-|-9-9-9-9-9-9-9-9-|-2-2--4-4--5-5-|
|-5-5-5-5-5-5-5-5-|-6-6-6-6-6-6-6-6-|-2-2--2-2--3-3-|
|-----------------|-----------------|-0-0-----------|


  +E  E E E E E E E   E E E E E E E E   E E E E E E E E
|-------------------|-----------------|-----------------|
|-------------------|-----------------|-----------------|
|-(5)-5-5-5-5-5-5-5-|-----------------|-----------------|
|-(5)-5-5-5-5-5-5-5-|-5-5-5-5-5-5-5-5-|-4-4-4-4-4-4-4-4-|
|-(3)-3-3-3-3-3-3-3-|-5-5-5-5-5-5-5-5-|-5-5-5-5-5-5-5-5-|
|-------------------|-3-3-3-3-3-3-3-3-|-2-2-2-2-2-2-2-2-|


  E Q  E Q  E E   +E  E E E E E E E   E E E E E E E E
|---------------|-------------------|-----------------|
|---------------|-------------------|-----------------|
|------4-4--5-5-|-(5)-5-5-5-5-5-5-5-|-7-7-7-7-7-7-7-7-|
|-2-2--4-4--5-5-|-(5)-5-5-5-5-5-5-5-|-7-7-7-7-7-7-7-7-|
|-2-2--2-2--3-3-|-(3)-3-3-3-3-3-3-3-|-5-5-5-5-5-5-5-5-|
|-0-0-----------|-------------------|-----------------|


                      Bridge
  E  E E E E E E  E     E  E Q  E E E E   +E  E Q  E E Q
|-------------------||------------------|----------------|
|-------------------||------------------|----------------|
|-8--8-8-8-8-8-8--8-||------------------|----------------|
|-9--9-9-9-9-9-9--9-||------------------|----------------|
|-6--6-6-6-6-6-6--6-||--0--2-3--3-2-0---|----------------|
|-------------------||----------------0-|-(0)-2-3--3-2-0-|
|
| Gtr II
| H.           Q        W                  H       H
|-------------------||------------------|----------------|
|--------------7/---||-17\--------------|--5-------------|
|-------------------||------------------|----------------|
|-------------------||------------------|----------------|
|-------------------||------------------|----------------|
|-------------------||------------------|----------------|


                                                       Interlude
  E E Q   E    E  E  E    +E  E  E  Q         E  Q      H    H
|----------------------|-----------------------------||------8----|
|----------------------|-----------------------------||-----------|
|----------------------|-----------------------------||-----------|
|----------------------|-----------------------------||-----------|
|-0-2-3---3----2--0----|------------------------[5]--||-----------|
|--------------------0-|--(0)-2--3--2---------3------||-----------|
|
| H       Q       E  E    +Q     E  E     +H                 W
|--------15b17---15-14-|-(14)---15-------------------||-----------|
|--------12b13---12-10-|-(10)---12-15b17-(15)--------||-----------|
|----------------------|-----------12----(12)--------||-----------|
|----------------------|-----------------------------||-----------|
|----------------------|-----------------------------||-----------|
|----------------------|-----------------------------||-----------|


  E Q  E +E  Q  E   +H.      E E   E Q  E +E  Q  E
|-8-7--5-(5)-7----|--------------|-----------------|
|---------------8-|-(8)------8-8-|-7-8--7-(7)-3--5-|
|-----------------|--------------|-----------------|
|-----------------|--------------|-----------------|
|-----------------|--------------|-----------------|
|-----------------|--------------|-----------------|


                                             Chorus
  E E  E E E  E E E    E E E  E E E  E  E     E Q  E Q  E E
|--------------------|--------------------||-----------------|
|--------------------|--------------------||o----------------|
|--------------------|--------------------||-------5-5--6-6--|
|-9-9\---9-9\-8---8\-|-7---7\-6---6\-5\---||--3-3--5-5--6-6--|
|-7-7----7-7--6---6--|-5---5--4---4--3----||o-3-3--3-3--4-4--|
|--------------------|--------------------||--1-1------------|


  +E  E E E E E E E   E E E E E E E E   E E E E E E E E
|-------------------|-----------------|-----------------|
|-------------------|-----------------|-----------------|
|-(6)-6-6-6-6-6-6-6-|-----------------|-----------------|
|-(6)-6-6-6-6-6-6-6-|-6-6-6-6-6-6-6-6-|-5-5-5-5-5-5-5-5-|
|-(4)-4-4-4-4-4-4-4-|-6-6-6-6-6-6-6-6-|-6-6-6-6-6-6-6-6-|
|-------------------|-4-4-4-4-4-4-4-4-|-3-3-3-3-3-3-3-3-|


  E Q  E Q  E E   +E  E E E E E E E
|---------------|-------------------|
|---------------|-------------------|
|------5-5--6-6-|-(6)-6-6-6-6-6-6-6-|
|-3-3--5-5--6-6-|-(6)-6-6-6-6-6-6-6-|
|-3-3--3-3--4-4-|-(4)-4-4-4-4-4-4-4-|
|-1-1-----------|-------------------|


  E E E E E E E E    E  E  E  E  E  E  E  E  4x
|-----------------|--------------------------||
|-----------------|-------------------------o||
|-8-8-8-8-8-8-8-8-|--9--9--9--9--9--9--9--9--||
|-8-8-8-8-8-8-8-8-|-10-10-10-10-10-10-10-10--||
|-6-6-6-6-6-6-6-6-|--7--7--7--7--7--7--7--7-o||
|-----------------|--------------------------||




--------------------------------------------------------------------------------


Duration Legend
---------------
W - whole; H - half; Q - quarter; E - 8th; S - 16th; T - 32nd; X - 64th; a - acciaccatura
+ - note tied to previous; . - note dotted; .. - note double dotted
Uncapitalized letters represent notes that are staccato (1/2 duration)
Irregular groupings are notated above the duration line
Duration letters will always appear directly above the note/fret number it represents the
duration for.  Duration letters with no fret number below them represent rests.  Multi-
bar rests are notated in the form Wxn, where n is the number of bars to rest for.  Low
melody durations appear below the staff

Tablature Legend
----------------
 h   - hammer-on
 p   - pull-off
 b   - bend
 pb  - pre-bend
 r   - bend release (if no number after the r, then release immediately)
 /\  - slide into or out of (from/to "nowhere")
 s   - legato slide
 S   - shift slide
 - natural harmonic
[n]  - artificial harmonic
n(n) - tapped harmonic
 ~   - vibrato
 tr  - trill
 T   - tap
 TP  - trem. picking
 PM  - palm muting
\n/  - tremolo bar dip; n = amount to dip
 \n  - tremolo bar down
 n/  - tremolo bar up
/n\  - tremolo bar inverted dip
 =   - hold bend; also acts as connecting device for hammers/pulls
 <> - volume swell (louder/softer)
 x   - on rhythm slash represents muted slash
 o   - on rhythm slash represents single note slash
Comments