Wig Wam - In My Dreams Chords & Tabs

 

In My Dreams Chords & Tabs

Wig Wam Chords & Tabs

Version: 1 Type: Tab 4 ratings
1 star 2 stars 3 stars 4 stars 5 stars
comments

In My Dreams Tab

Guitar 1
                                                                                                               
E||--------------------------|---------------------|------------------|-------------------|-------------------|
B||--|---------------------|------------------|-------------------|-------------------|
G||--------------------------|---------------------|------------------|-------------------|-------------------|
D||--9--9--9--9--9--9--9--9--|--9------------5--5--|------------------|-------------------|--7----------------|
A||--7--7--7--7--7--7--7--7--|--7------------3--3--|------------------|--5----------------|--5----------------|
E||--0--0--0--0--0--0--0--0--|--0------------------|------------------|--3----------------|-------------------|
				Come on!...

                                                                                                            
--------------------------|--------------------------|--------------------------|--------------------------|
---|
--------------------------|--------------------------|--------------------------|--------------------------|
--------------------------|--------------------------|--------------------------|--------------------------|
--7--7--7--7--7--7--7--7--|--7--7--7--7--7--7--7--7--|--7--7--7--7--7--7--7--7--|--7--7--7--7--7--7--7--7/-|
--0--0--0--0--0--0--0--0--|--0--0--0--0--0--0--0--0--|--0--0--0--0--0--0--0--0--|--0--0--0--0--0--0--0--0/-|										   all   you   ever
Guitar 2
--------------------------|-------------------------------|
--------------------------|-------------------------------|
--------------------------|--------------------------7~---|Hit the note with both your thumb and
--------------------------|-------------------------------|your pick, so you get a screamy,
----------7-7-7-7-7-7-7-7-|--7-7-7-7-7-7-7-7-7-7-7-7------|octave sound.
--------------------------|-------------------------------|
					
                                                                                                
---------------------------|---------------------------|-------------------|-------------------|
---------------------------|---------------------------|-------------------|-------------------|
---------------------------|---------------------------|-------------------|-------------------|
--2------------------------|--2------------------------|--5----------------|--7----------------|
-----------2---------------|-----------2---------------|--3----------------|--5----------------|
-----0--0-----0-0-3--2--0--|-----0--0-----0-0-3--2--0--|-------------------|-------------------|
 do...

                                                                                                   
--------------------------|--------------------|------------------------|-------------------------|
--------------------------|--------------------|------------------------|-------------------------|
--------------------------|--------------------|----------4--4----5--5--|----5--5--5--5--5--5--5--|
--------------------------|--5----5------------|--2--2----4--4----5--5--|----5--5--5--5--5--5--5--|
--3--2--3--2--3--2--3--2--|--3----3------------|--2--2----2--2----3--3--|----3--3--3--3--3--3--3--|
--------------------------|--------------------|--0--0------------------|-------------------------|
						Come on! Come on! Come on!

                                                                                                         
--------------------------|--------------------------|------------------------|-------------------------|
--------------------------|--------------------------|------------------------|-------------------------|
--------------------------|--7--7--7--7--7--7--7--7--|----------4--4----5--5--|----5--5--5--5--5--5--5--|
--5--5--5--5--5--5--5--5--|--7--7--7--7--7--7--7--7--|--2--2----4--4----5--5--|----5--5--5--5--5--5--5--|
--5--5--5--5--5--5--5--5--|--5--5--5--5--5--5--5--5--|--2--2----2--2----3--3--|----3--3--3--3--3--3--3--|
--3--3--3--3--3--3--3--3--|--------------------------|--0--0------------------|-------------------------|
Guitar 2
--------------------------|--------------------------|------------------------|-------------------------|
--------------------------|--3--3--3--3--3--3--3--3--|------------------------|-------------------------|
--------------------------|--2--2--2--2--2--2--2--2--|----------4--4----5--5--|----5--5--5--5--5--5--5--|
--5--5--5--5--5--5--5--5--|--0--0--0--0--0--0--0--0--|--2--2----4--4----5--5--|----5--5--5--5--5--5--5--|
--5--5--5--5--5--5--5--5--|--------------------------|--2--2----2--2----3--3--|----3--3--3--3--3--3--3--|
--3--3--3--3--3--3--3--3--|--2--2--2--2--2--2--2--2--|--0--0------------------|-------------------------|
							You are the only one!

                                                                                                            
--------------------------|--------------------------|--------------------------|--------------------------|
--------------------------|--------------------------|--|
--7--7--7--7--7--7--7--7--|--8--8--8--8--8--8--8--8--|--------------------------|--------------------------|
--7--7--7--7--7--7--7--7--|--8--8--8--8--8--8--8--8--|--------------------------|--------------------------|
--5--5--5--5--5--5--5--5--|--6--6--6--6--6--6--6--6--|--7--7--7--7--7--7--7--7--|--7--7--7--7--7--7--7--7--|
--------------------------|--------------------------|--0--0--0--0--0--0--0--0--|--0--0--0--0--0--0--0--0--|
							Scared of waking up...

                                                                                                
---------------------------|---------------------------|-------------------|-------------------|
---------------------------|---------------------------|-------------------|-------------------|
---------------------------|---------------------------|--5----------------|--7----------------|
--2------------------------|--2------------------------|--5----------------|--7----------------|
-----------2---------------|-----------2---------------|--3----------------|--5----------------|
-----0--0-----0-0-3--2--0--|-----0--0-----0-0-3--2--0--|-------------------|-------------------|


                                                                                                                       
---------------------------|---------------------------|------------------|-----------------------|-------------------|
---------------------------|---------------------------|------------------|-----------------------|-------------------|
---------------------------|------------------------5--|------------------|--------------------5--|----------------5--|
--2------------------------|--2---------------------5--|------------------|--------5--5--4--0--5--|----------------5--|
-----------2---------------|-----------2------------3--|------------------|--------------------3--|----------------3--|
-----0--0-----0-0-3--2--0--|-----0--0-----0-0-3--2-----|------------------|-----------------------|-------------------|
						    Baby, let's get into the groove...

                                                                                                     
----------------------|------------------------|-------------------------|--------------------------|
----------------------|------------------------|-------------------------|--------------------------|
----5--------5-5-5----|----------4--4----5--5--|----5--5--5--5--5--5--5--|--------------------------|
----5--------5-5-5----|--2--2----4--4----5--5--|----5--5--5--5--5--5--5--|--5--5--5--5--5--5--5--5--|
----3--------3-3-3----|--2--2----2--2----3--3--|----3--3--3--3--3--3--3--|--5--5--5--5--5--5--5--5--|
----------------------|--0--0------------------|-------------------------|--3--3--3--3--3--3--3--3--|
		       Come on! Come on! Come on!

                                                                                                         
--------------------------|------------------------|-------------------------|--------------------------|
--------------------------|------------------------|-------------------------|--------------------------|
--7--7--7--7--7--7--7--7--|----------4--4----5--5--|----5--5--5--5--5--5--5--|--7--7--7--7--7--7--7--7--|
--7--7--7--7--7--7--7--7--|--2--2----4--4----5--5--|----5--5--5--5--5--5--5--|--7--7--7--7--7--7--7--7--|
--5--5--5--5--5--5--5--5--|--2--2----2--2----3--3--|----3--3--3--3--3--3--3--|--5--5--5--5--5--5--5--5--|
--------------------------|--0--0------------------|-------------------------|--------------------------|

[ Tab from: http://www.guitartabs.cc/tabs/w/wig_wam/in_my_dreams_tab.html ]
                                                                                                         
--------------------------|------------------------|-------------------------|--------------------------|
--------------------------|------------------------|-------------------------|--------------------------|
--8--8--8--8--8--8--8--8--|----------4--4----5--5--|----5--5--5--5--5--5--5--|--------------------------|
--8--8--8--8--8--8--8--8--|--2--2----4--4----5--5--|----5--5--5--5--5--5--5--|--5--5--5--5--5--5--5--5--|
--6--6--6--6--6--6--6--6--|--2--2----2--2----3--3--|----3--3--3--3--3--3--3--|--5--5--5--5--5--5--5--5--|
--------------------------|--0--0------------------|-------------------------|--3--3--3--3--3--3--3--3--|


                                                                                                         
--------------------------|------------------------|-------------------------|--------------------------|
--------------------------|------------------------|-------------------------|--------------------------|
--7--7--7--7--7--7--7--7--|----------4--4----5--5--|----5--5--5--5--5--5--5--|--7--7--7--7--7--7--7--7--|
--7--7--7--7--7--7--7--7--|--2--2----4--4----5--5--|----5--5--5--5--5--5--5--|--7--7--7--7--7--7--7--7--|
--5--5--5--5--5--5--5--5--|--2--2----2--2----3--3--|----3--3--3--3--3--3--3--|--5--5--5--5--5--5--5--5--|
--------------------------|--0--0------------------|-------------------------|--------------------------|


                                                                                                       
--------------------------|-------------------------|-----------------------|-------------------------|
--------------------------|-------------------------|-----------------------|-------------------------|
--8--8--8--8--8--8--8--8--|-------------------------|-----------------------|-------------------------|
--8--8--8--8--8--8--8--8--|-------------------------|-----------------------|-------------------------|
--6--6--6--6--6--6--6--6--|--0--2--3----3--2--0-----|-----------------------|--0--2--3----3--2--0-----|
--------------------------|----------------------0--|----2--3----3--2--0----|----------------------0--|
Guitar solo
--------------------------|----------------------------------|------------------|--------15b-----15r-14--|------15----12--------|
--------------------5/----|--15b-15b-15b-15b-15b-15b-15r-----|------------------|------------------------|----------------------|
--------------------------|----------------------------------|------------------|------------------------|----------------------|
--------------------------|------------------------------14--|------------------|------------------------|----------------------|
--------------------------|----------------------------------|------------------|------------------------|----------------------|
--------------------------|----------------------------------|------------------|------------------------|----------------------|
						   In my dreams...

                                                                                                       
-----------------------|-------------------|------------------|-------------------|-------------------|
-----------------------|-------------------|------------------|-------------------|-------------------|
-----------------------|-------------------|------------------|-------------------|-------------------|
-----------------------|--5----------------|------------------|-------------------|-------------------|
---------------0--2----|--3----------------|------------------|--5----------------|--5----------------|
----2--3----3----------|-------------------|------------------|--3----------------|--2----------------|
			If this thing's real, dont wake me up...

                                                                                                       
--------------------------|------------------------|------------------------|-------------------------|
--------------------------|------------------------|------------------------|-------------------------|
--------------------------|------------------------|----------5--5----6--6--|----6--6--6--6--6--6--6--|
--9--9--9--8--8--8--7--7--|--7--6--6--6------------|--3--3----5--5----6--6--|----6--6--6--6--6--6--6--|
--7--7--7--6--6--6--5--5--|--5--4--4--4--5----5----|--3--3----3--3----4--4--|----4--4--4--4--4--4--4--|
--------------------------|--------------3----2----|--1--1------------------|-------------------------|
						    Come on! Come on! Come on!

                                                                                                         
--------------------------|--------------------------|------------------------|-------------------------|
--------------------------|--------------------------|------------------------|-------------------------|
--------------------------|--8--8--8--8--8--8--8--8--|----------5--5----6--6--|----6--6--6--6--6--6--6--|
--6--6--6--6--6--6--6--6--|--8--8--8--8--8--8--8--8--|--3--3----5--5----6--6--|----6--6--6--6--6--6--6--|
--6--6--6--6--6--6--6--6--|--6--6--6--6--6--6--6--6--|--3--3----3--3----4--4--|----4--4--4--4--4--4--4--|
--4--4--4--4--4--4--4--4--|--------------------------|--1--1------------------|-------------------------|


                                                                                                         
--------------------------|--------------------------|------------------------|-------------------------|
--------------------------|--------------------------|------------------------|-------------------------|
--8--8--8--8--8--8--8--8--|--9--9--9--9--9--9--9--9--|----------5--5----6--6--|----6--6--6--6--6--6--6--|
--8--8--8--8--8--8--8--8--|--9--9--9--9--9--9--9--9--|--3--3----5--5----6--6--|----6--6--6--6--6--6--6--|
--6--6--6--6--6--6--6--6--|--7--7--7--7--7--7--7--7--|--3--3----3--3----4--4--|----4--4--4--4--4--4--4--|
--------------------------|--0--0--0--0--0--0--0--0--|--1--1------------------|-------------------------|


                                                                                                         
--------------------------|--------------------------|------------------------|-------------------------|
--------------------------|--------------------------|------------------------|-------------------------|
--------------------------|--8--8--8--8--8--8--8--8--|----------5--5----6--6--|----6--6--6--6--6--6--6--|
--6--6--6--6--6--6--6--6--|--8--8--8--8--8--8--8--8--|--3--3----5--5----6--6--|----6--6--6--6--6--6--6--|
--6--6--6--6--6--6--6--6--|--6--6--6--6--6--6--6--6--|--3--3----3--3----4--4--|----4--4--4--4--4--4--4--|
--4--4--4--4--4--4--4--4--|--------------------------|--1--1------------------|-------------------------|


                                                                                                         
--------------------------|--------------------------|------------------------|-------------------------|
--------------------------|--------------------------|------------------------|-------------------------|
--8--8--8--8--8--8--8--8--|--9--9--9--9--9--9--9--9--|----------5--5----6--6--|----6--6--6--6--6--6--6--|
--8--8--8--8--8--8--8--8--|--9--9--9--9--9--9--9--9--|--3--3----5--5----6--6--|----6--6--6--6--6--6--6--|
--6--6--6--6--6--6--6--6--|--7--7--7--7--7--7--7--7--|--3--3----3--3----4--4--|----4--4--4--4--4--4--4--|
--------------------------|--0--0--0--0--0--0--0--0--|--1--1------------------|-------------------------|


                                                                                                         
--------------------------|--------------------------|------------------------|-------------------------|
--------------------------|--------------------------|------------------------|-------------------------|
--------------------------|--8--8--8--8--8--8--8--8--|----------5--5----6--6--|----6--6--6--6--6--6--6--|
--6--6--6--6--6--6--6--6--|--8--8--8--8--8--8--8--8--|--3--3----5--5----6--6--|----6--6--6--6--6--6--6--|
--6--6--6--6--6--6--6--6--|--6--6--6--6--6--6--6--6--|--3--3----3--3----4--4--|----4--4--4--4--4--4--4--|
--4--4--4--4--4--4--4--4--|--------------------------|--1--1------------------|-------------------------|


                                                                            
--------------------------|--------------------------|--------------------||
--------------------------|--------------------------|--------------------||
--8--8--8--8--8--8--8--8--|--9--9--9--9--9--9--9--9--|--------------------||
--8--8--8--8--8--8--8--8--|--9--9--9--9--9--9--9--9--|--3--3--------------||
--6--6--6--6--6--6--6--6--|--7--7--7--7--7--7--7--7--|--3--3--------------||
--------------------------|--0--0--0--0--0--0--0--0--|--1--1--------------||

-|Tabbed by Johan B using GP4.|-
Comments