Widespread Panic - Coconuts Chords & Tabs

 

Coconuts Chords & Tabs

Widespread Panic Chords & Tabs

Version: 1 Type: Tab 0 ratings
1 star 2 stars 3 stars 4 stars 5 stars
comments

Coconuts Tab

TITLE: Coconuts
ARTIST: Widespread Panic
TABBER: Nick Lee (AIM: NESNL) 
TUNING: Standard (EBGDAE)
NOTES: Great song about the coconuts.


Main Guitar Riff:

E-|------------------------------------------|
B-|-----8-6-5-6-5-6-6-5----------8-8/10-8----|
G-|---7-----------------7-5----7-------------|
D-|-5------------------------5---------------|
A-|------------------------------------------|
E-|------------------------------------------|
                                 
Changes to this riff at certain points:
[ Tab from: http://www.guitartabs.cc/tabs/w/widespread_panic/coconuts_tab.html ]
E-|------------------------------------------|
B-|-----10-8-7-8-7-8-8-7---------10-10/12-10-|
G-|---9------------------9-7---9-------------|
D-|-7------------------------7---------------|
A-|------------------------------------------|
E-|------------------------------------------|

This is the rythm that is played by the organ:

E-|------------------------------------------|
B-|------------------------------------------|
G-|------------------------------------------|
D-|-7--7-x-x-x-7-7-10-12--12-x-x-x-12-12-10--|
A-|-7--7-x-x-x-7-7-10-12--12-x-x-x-12-12-10--|
E-|-5--5-x-x-x-5-5-8--10--10-x-x-x-10-12-8---|

My first tab.  Email me with questions comments at nesnl@aol.com
Comments