Wide Mouth Mason - Smile Chords & Tabs

 

Smile Chords & Tabs

Wide Mouth Mason Chords & Tabs

Version: 1 Type: Bass Tab 0 ratings
1 star 2 stars 3 stars 4 stars 5 stars
comments

Smile Bass Tab

   
+---------------------------+
BAND: Wide Mouth Mason
SONG: Smile
ALBUM: Stew
TABBED BY: Benny Richard
EMAIL: benny@hilarious.com
http://gwild0r.virtualave.net
+---------------------------+

Check this out.. I think this is pretty much right except for the
Solo..  I'm quite sure i'm a little off..  But this is pretty much the
jists of it..  

If you have any corrections please let me know..



Intro

G -------------------------------------------------|
D -------------------------------------------------|
A -------------------------------------------------|
E ---0-2-------0-2-------5-7-----------------------|

G -------------------------------------------------|
D -------------------------------------------------|
A -------------------------------------------------|
E ---0-2-------0-2-------5-7/----------------------|


Chorus
[ Tab from: http://www.guitartabs.cc/tabs/w/wide_mouth_mason/smile_btab.html ]
G -------------------------------------------------|
D -------------------------------------------------| 	repeat
A -------------------------------------------------|	[x3]
E ---2-2-2-2-2--4-4-4--7-7-7-7-7-7-----------------|



Verse

G -------------------------------------------------|
D -------------------------------------------------|
A -------------------------------------------------|
E ---0-2-2-2-2-2-2-2-0-2-2-2-2-2-2-2-5-7-----------|


Bridge
but i can still smiiiiile...

G -------------------------------------------------|  the count isn't correct but
D -------------------------------------------------|  this is how this part goes. 
A -------------------------------------------------|  just listen for the change.
E --9-9-9-9-9-9--7-7-7-7-7-7-7--9-9-9-9-9-9-9------|


solo

G -------------------------------------------------|
D -------------------------------------------------|
A -------------------------------------------------|
E -0-2-2-2-2-2-2-2-5-7-2-2-2-2-2-2-0-2-2-2-2-2-0-2-|

G -------------------------------------------------|
D -------------------------------------------------|
A -------------------------------------------------|
E -5-7-11---4-4-4-4-6-6-6-6-2-2-2-2----------------|


Comments