Wicked Chemistry - Sweating Beads Chords & Tabs

 

Sweating Beads Chords & Tabs

Wicked Chemistry Chords & Tabs

Version: 1 Type: Bass Tab 0 ratings
1 star 2 stars 3 stars 4 stars 5 stars
comments

Sweating Beads Bass Tab

ARTIST:WICKED CHEMISTRY
SONG:SWEATING BEADS
ALBUM:AS WICKED AS YOU PLEASE

STANDARD TUNING
G-------------
D-------------
A--2--1-------
E--------2--1-

THEN
G-------------------
D-------------------
A-------------------
E--2--1--2--1--2--1-

MAIN RIFF
G-------------------
D-------------------
A-------------------
E--0---0-0--0-1-1-0-
[ Tab from: http://www.guitartabs.cc/tabs/w/wicked_chemistry/sweating_beads_btab.html ]
PRE-CHORUS/CHORUS "GONNA TAKE YOU AND YOU'LL NEVER BE THE SAME"
G--------------------------------------------------------------------
D--------------------------------------------------------------------
A--------------------------------------------------------------------
E-3-3-3-3-3-3-3-3--5-5-5-5-5-5-5-5--7-7-7-7-7-7-7-7--5-5-5-5-5-5-5-5-

THEN "GONNA TAKE YOU AND PUT YOU THROUGH THE FLOOR"
G-----------------------------------------------------------------
D-----------------------------------------------------------------
A-----------------------------------------------------------------
E-3-3-3-3-3-3-3-3--5-5-5-5-5-5-5-5--7-7-7-7-7-7-7-7-7-7-7-7-7-7-7-

THEN MAIN RIFF

THATS IT WICKED ONES. FLEA, NEWSTED, DEWEY
Comments