Who - Wont Get Fooled Again Chords & Tabs

 

Wont Get Fooled Again Chords & Tabs

Who Chords & Tabs

Version: 2 Type: Tab 0 ratings
1 star 2 stars 3 stars 4 stars 5 stars
comments

Wont Get Fooled Again Tab

Band - The Who
Song - Won't Get Fooled Again

Tuning: standard

e|------------------------------------------------|
B|------------------------------------------------|
G|--2---------------------------------------------|
D|--2---------------------------------------------|
A|--0---------------------------------------------|
E|------------------------------------------------|

e|------------------------------------------------|
B|--------------------5-----5-----5-----3-----2---|
G|--------------------2-----2-----2-----2-----2---|
D|------------------------------------------------|
A|------------------------------------------------|
E|------------------------------------------------|

e|------------------------------------------------|
B|--3-----------------3-----3-----------2---------|
G|--2-----2-----2-----2-----2-----2-----2-----2---|
D|--3-----------3-----3-----3-----3-----------2---|
A|------------------------------------------------|
E|------------------------------------------------|

e|------------------------------------------------|
B|--2-----2-----2-----2-----2-----------2---------|
G|--2-----2-----2-----2-----2-----2-----2-----2---|
D|--4-----------4-----------4-----4-----4-----4---|
A|------------------------------------------------|
E|------------------------------------------------|

e|------------------------------------------------|
B|--------3-----3-----------3-----3-----5---------|
G|--2-----2-----2-----2-----2-----2-----2-----2---|
D|--3-----3-----------3-----3-----3-----3-----3---|
A|------------------------------------------------|
E|------------------------------------------------|

e|--------------------------5---------------------|
B|--5-----5-----5-----5-----5-----------3-----2---|
G|--2-----2-----2-----2-----2-----2-----2-----2---|
D|--------3---------------------------------------|
A|------------------------------------------------|
E|------------------------------------------------|

e|------------------------------------------------|
B|--3-----3-----3-----3-----3-----3-----2---------|
G|--2-----2-----2-----2-----2-----2-----2-----2---|
D|--3-----------3-----3-----3-----3-----------3---|
A|------------------------------------------------|
E|------------------------------------------------|

e|------------------------------------------------|
B|--2-----2-----2-----------2-----2---------------|
G|--2-----2-----2-----2-----2-----2-----2-----2---|
D|--4-----------4-----4-----4-----4-----4-----4---|
A|------------------------------------------------|
E|------------------------------------------------|

e|------------------------------------------------|
B|--------3-----3-----------3-----3-----3-----3---|
G|--2-----2-----2-----2-----2-----2-----2-----2---|
D|--3-----3-----3-----3-----3-----3-----3-----3---|
A|------------------------------------------------|
E|------------------------------------------------|
[ Tab from: http://www.guitartabs.cc/tabs/w/who/wont_get_fooled_again_tab_ver_2.html ]
e|--5-----------------------5---------------------|
B|--5-----3-----2-----------5-----3-----2-----2---|
G|--2-----2-----2-----2-----2-----2-----2-----2---|
D|--------------------2-----------------------3---|
A|------------------------------------------------|
E|------------------------------------------------|


e|--5---------------------------------------------|
B|--5-----3-----2-----2-----5-----3-----2---------|
G|--4-----2-----2-----2-----2-----2-----2-----2---|
D|--------------------3-----------------------3---|
A|------------------------------------------------|
E|------------------------------------------------|

e|------------------------------------------------|
B|--------------3-----2-----------2-----3-----2---|
G|--2-----2-----2-----2-----2-----2-----2-----2---|
D|--2-----------------------2---------------------|
A|------------------------------------------------|
E|------------------------------------------------|

e|------------------------------------------------|
B|--------2-----3-----2-----------2-----3-----2---|
G|--2-----2-----2-----2-----2-----2-----2-----2---|
D|--3-----------------------3---------------------|
A|------------------------------------------------|
E|------------------------------------------------|


e|--------------5-----5-----------5-----5---------|
B|--------2-----3-----2-----------2-----3-----2---|
G|--2-----2-----2-----2-----2-----2-----2-----2---|
D|--2-----------------------2---------------------|
A|------------------------------------------------|
E|------------------------------------------------|

e|--------0-----5-----5-----5-----5-----5---------|
B|--2-----2-----5-----5-----5-----5-----5---------|
G|--2---------------------------------------------|
D|--3---------------------------------------------|
A|--------------------------------------------0--0|
E|--------------------------------------------0--0|

e|------------------------------------------------|
B|------------------------------------------------|
G|------------------------------------------------|
D|--2---------------------------------------------|
A|--2---------------------------------------------|
E|--0---------------------------------------------|

e|--------3-----------------2-----------2---------|
B|--------3-----------------3-----------3---------|
G|--------0-----------------2-----------2-----2--2|
D|--------0-----------------0-----------0-----2--2|
A|--------------------------0-----------------0--0|
E|--------3-----------3---------------------------|

e|------------------------------------------------|
B|--2---------------------------------------------|
G|--2---------------------------------------------|
D|--2---------------------------------------------|
A|--0---------------------------------------------|
E|------------------------------------------------|

e|--------3-----------------2---------------------|
B|--------3-----------------3---------------------|
G|--------0-----------------2-----------------2--2|
D|--------0--------------0--0-----------0-----2--2|
A|--------2--------------0--------------------0--0|
E|--3-----------------3---------------------------|

e|-----|
B|-----|
G|--2--|
D|--2--|
A|--0--|
E|-----|
Comments