Who - The Seeker Chords & Tabs

 

The Seeker Chords & Tabs

Who Chords & Tabs

Version: 3 Type: Tab 0 ratings
1 star 2 stars 3 stars 4 stars 5 stars
comments

The Seeker Tab

   
The Seeker
By The Who
Transcribed by Kelsey Terhorst

h = hammer on
p = pull off
/ = slide up
\ = slide down
r = play notes really fast

Tuning: E A D G B E

First, start with open strings, but play so they are barely heard and the A chord is
heard most. When you're hitting the D do the same thing. The strings should be barely heard.
[ Tab from: http://www.guitartabs.cc/tabs/w/who/the_seeker_tab_ver_3.html ]
              rrr
E|-0-0-0-0-0--000-0-0-3-2-|
B|-0h2-2-2-2--222-2-0-3-3-|
G|-0h2-2-2-2--222-2-0-2-2-|
D|-0h2-2-2-2--222-2-0-0-0-|
A|-0h0-0-0-0--000-0-0-----|
E|------------------------|

After a couple of those there is a riff/fill that goes like this:

E|-------0-3-|
B|-0-1---0-0-|
G|-0-0---0-0-|
D|-0-2---0-0-|
A|-0-3---0-2-|
E|-------0-3-|

After the first riff there is another riff that goes like this:

              rrr
E|---2-2-2-2--222-2-----|
B|-0h3-3-3-3--333-3-0-1-|
G|-0h2-2-2-2--222-2-0-0-|
D|-0h0-0-0-0--000-0-0-2-|
A|------------------0-3-|
E|----------------------|

I haven't figured out the solo but here's the ending chords:

E|------0-3--0-|
B|-0-1--0-0--2-|
G|-0-0--0-0--2-|
D|-0-2--0-0--2-|
A|-0-3--0-2--0-|
E|------0-3----|

The End.
Comments