Who - The Seeker Chords & Tabs

 

The Seeker Chords & Tabs

Who Chords & Tabs

Version: 2 Type: Tab 0 ratings
1 star 2 stars 3 stars 4 stars 5 stars
comments

The Seeker Tab

   
-------------------------------------------------------------------------------
			     THE SEEKER - The Who
-------------------------------------------------------------------------------
Tabbed by: Gibsonsg99
Email:Specailized_p2@hotmail.com

Tuning: standard

| /  slide up
| \  slide down
| h  hammer-on
| p  pull-off
| ~  vibrato
| +  harmonic
| x  Mute note

This should be enough for you to figuer out the whole thing.

Part#1 x 2
Part#2 x 1
Part#1 x 6
Part#3 x 1
Part#1 x 2
Part#4 x 1
Part#2 x 1
Part#1 x 6
Part#3 x 1
Part#1 x 2
Part#4 x 1
Part#2 x 1

Part#1 (intro)
                  Dm D
e|5-5-5-5-5-5-5-5--3-2|
B|5-5-5-5-5-5-5-5--3-3|
G|6-6-6-6-6-6-6-6--2-2|
D|7-7-7-7-7-7-7-7--0-0|
A|7-7-7-7-7-7-7-7-----|
E|5-5-5-5-5-5-5-5-----|
[ Tab from: http://www.guitartabs.cc/tabs/w/who/the_seeker_tab_ver_2.html ]
Part#2 (pre-verse)
  D C    C G
e|2-0----0-3|
B|3-1----1-2|
G|2-0----0--|
D|0-2----2--|
A|--3----3-2|
E|---------3|

Part #3

e|5-5-5-5-5-5-5-5-5-5-5-5-5-5-5-5-5-5-5-5-5-5-5-5|
B|5-5-5-5-5-5-5-5-5-5-5-5-5-5-5-5-5-5-5-5-5-5-5-5|
G|6-6-6-6-6-6-6-6-7-7-7-7-7-7-7-7-7-7-7-7-7-7-7-7|
D|7-7-7-7-7-7-7-7-7-7-7-7-7-7-7-7-7-7-7-7-7-7-7-7|
A|7-7-7-7-7-7-7-7-5-5-5-5-5-5-5-5-5-5-5-5-5-5-5-5|
e|5-5-5-5-5-5-5-5-5-5-5-5-5-5-5-5-5-5-5-5-5-5-5-5|

part #4

e|5-5-5-5-5-5-5-5|
B|5-5-5-5-5-5-5-5|
G|6-6-6-6-6-6-6-6|
D|7-7-7-7-7-7-7-7|
A|7-7-7-7-7-7-7-7|
e|5-5-5-5-5-5-5-5|





===============================================================================
Comments