Who - The Seeker Chords & Tabs

 

The Seeker Chords & Tabs

Who Chords & Tabs

Version: 1 Type: Tab 2 ratings
1 star 2 stars 3 stars 4 stars 5 stars
comments

The Seeker Tab

#----------------------------------PLEASE NOTE---------------------------------#
#This file is the author's own work and represents their interpretation of the #
#song. You may only use this file for private study, scholarship, or research. #
#------------------------------------------------------------------------------#
Tabber: UnKn0wN_69
THE SEEKER
--by the Who


INTRO listen to song to get exact timing and stuff                  
e-----------------------------------------------------------------------------------------------|
B---2-2-2-2-2-2-2-2-2-2-2----------2-2-2-2-2-2-2-2-2-2----------2-------------------------------|
G---2-2-2-2-2-2-2-2-2-2-2---5-5/7--2-2-2-2-2-2-2-2-2-2--5-5-7---2-5--5--------------------------|
D---2-2-2-2-2-2-2-2-2-2-2---5-5/7--2-2-2-2-2-2-2-2-2-2--5-5-7---2-5--5-5----go right into verse-|
A---------------------------3-3/5-----------------------3-3/5-----3--3-5------------------------|
E----------------------------------------------------------------------3------------------------|
  
VERSE
[ Tab from: http://www.guitartabs.cc/tabs/w/who/the_seeker_tab.html ]
e---------------------------------------|
B---2-2-2-2-2-2-2-2-2-2-2--------------o|
G---2-2-2-2-2-2-2-2-2-2-2---5-5/7-------|
D---2-2-2-2-2-2-2-2-2-2-2---5-5/7-------|
A---------------------------3-3/5------o|
E---------------------------------------|


PRE-CHORUS
e---------------------------------------------|
B---------------------------------------------|
G--7-7-7-7-7--5/7--7-7-7-7-7--5/7--7-7-7-7-7--|
D--7-7-7-7-7--5/7--7-7-7-7-7--5/7--7-7-7-7-7--|
A--5-5-5-5-5--3/5--5-5-5-5-5--3/5--5-5-5-5-5--|
E---------------------------------------------|
 r

PRE-CHORUS
e----------------------------------|
B--2-2-2-2-2-2-2-2-2-2-2----------o|
G--2-2-2-2-2-2-2-2-2-2-2--5-5/7----|
D--2-2-2-2-2-2-2-2-2-2-2--5-5/7----|
A-------------------------3-3/5---o|
E----------------------------------|
 

CHORUS
e----------------------------------------------------|
B----------------------------------------------------|
G--7-5-------------------------5---------------------|
D--5-5-------------------------5-5-------------------|
A--5-3-------------------------3-5-------------------|
E--------------------------------3-------------------|


different part
e-------------------------------------------|
B-------------------------------------------|
G--7-7-7-7-7-7-7-7-7-7-7-7-7-7-7-7-7-7-7----|
D--7-7-7-7-7-7-7-7-7-7-7-7-7-7-7-7-7-7-7----|
A--5-5-5-5-5-5-5-5-5-5-5-5-5-5-5-5-5-5-5----|
E-------------------------------------------|
Comments