Who - The Real Me Chords & Tabs

 

The Real Me Chords & Tabs

Who Chords & Tabs

Version: 1 Type: Tab

The Real Me Tab

I think it sounds pretty good. If you dont like it, than you can make your own tab.
[ Tab from: http://www.guitartabs.cc/tabs/w/who/the_real_me_tab.html ]
E|------------------------------------------------------------|
B|------------------------------------------------------------|
G|---------------------------------2---9---14-----------------|
D|---------------------------------2---9---14-----------------|
A|--0-0-0-0-7-5s3-0---0--10-12-----0---7---12---0-0-3-0-5-----|
E|------------------3-----------------------------------------|

E|----------------------------|
B|----------------------------|
G|--2---9---14----------------|
D|--2---9---14----------------|
A|--0---7---12---7-7-5-3-0----|
E|----------------------------|